música
Buscador

Acorde de Bakalao - Transfer

Letra de Bakalao



Intro: x2

C# A F# G# (pm…)e|------------------------------------------------------------------|

B|------------------------------------------------------------------|

G|-6--6h8h9-8-6-----6--6h8h9-8-6-----6--6h8h9-8-6-------------------|

D|--------------7----------------6-----------------6-6-6-6-7-6-7----|

A|------------------------------------------------------------------|

E|------------------------------------------------------------------|



C# A F# G# C#

e|------------------------------------------------------------------|

B|-------------------------------------------------9-7--------------|

G|-6--6h8h9-8-6-----6--6h8h9-8-6-----6--6h8h9-8-6------9-8-9-8-6~~~~|

D|--------------7----------------6----------------------------------|

A|------------------------------------------------------------------|

E|------------------------------------------------------------------|



MIb DOb SOLb REb MIb DOb SOLb[REb-DOb-REb]La fiesta ya comenzó, el canuto de rigor y las copas de antemano,

empolvarse la nariz, imprescindible pa' salir a la discoteca zumbando.



SOLb REb LA MI

Vivir un sueño barato, muy caro de costear,

SOLb REb LA MI LAb DOb

no busques tres pies al gato, porque aquí sobra pensar.

https://www.coveralia.com/acordes/bakalao-transfer.php


Y otro tiro antes de entrar con el agua mineral, masticando chicle a saco,

sonreír o desfasar, se acabó el material, sé que en el parking hay algo.



Pastillas sin recetar y el tapón de la botella,

mordiéndolo sin parar, se acabó el chicle, qué pena... pero da igual.



Estribillo:

DO# LA MI SOL#

Bakalao, chumba chumba a toda hostia con la boca de lao'.

Qué fiestón de abanicos en las manos, aceleraos'.

Presumir de todo lo que has tomado, y exagerar;

ten cuidao', que hoy te sientes el más malo y la vas a liar.



Intro REb-REb-REb-REb-REb-REb-DOb x5 REb/

La fiesta se terminó, el domingo a lucir bajón en chándal y con tus colegas.

Dentro de unos días más, la rutina de intentar que suba la adrenalina.



Y al gimnasio entre semana, porque lo hacen los demás,

el mismo corte de pelo y ciclarse sin parar... es moda ya.



Estribillo



Letra subida por: Anónimo

Discos en los que aparece este acorde: Jentes

El acorde de Bakalao de Transfer es una versión de la canción original realizada por colaboradores/usuarios de Coveralia.

¿Has encontrado algún error en esta página? Envíanos tu corrección del acorde