música
Buscador

Acorde de Bailando - Jovenes Pordioseros

Letra de Bailando

Riff

e|---------------

B|-3-----------3-

G|-3b----------3-

D|----5-5--3h5---

A|---------------

E|---------------



Intro



e|-------------------------------------------------------------

B|------------------------------------------------5------------

G|-Riff X4---5b..----Riff X4--------------2b--5b--7b-----------

D|------------------------------3-4-5--------------------------

A|----------------------------5------------que-suene-sucio-----

E|--------------------------palm-mute--------------------------





e|-----------------------3------8------------------------------

B|-------------------------------------------------------------

G|-Riff X4-----------2-------7---------------------------------

D|------------3-5----2-------7------Riff-X4-----3-4-5----------

A|----------5--------0-------5----------------5----------------

E|-------------------------------------------------------------









Riff 2

e|---------------------|

B|----3-3----5-5--3----|

G|----3-3----5-5--3b---|

D|-s5-----s5---------5-|

A|---------------------|

E|---------------------|





Riff 2

La noche está ardiendo en alcohol,

recíen te traje y ya te quiero probar,

a veces pienso que sos mi salvación,

a veces creo que me puedes matar,





C5

Y bailando se vá la noche,



C5 Riff

y bailando me está sangrando la nariz,





https://www.coveralia.com/acordes/bailando-jovenes-pordioseros.php

Abajo estan los que nunca tienen frío,

no te lastimo cuando me pongo tieso,

pasamos juntos tantas noches malas,

no me abandones los dos somos igual,

Y bailando se vá la noche,

y bailando me está sangrando la nariz,







Solo de saxo:



D#5 - C5 - A5 - G5 X2





Solo

e|----3------3----3h4p3----3-----------------------------------

B|------3-6b---6--------6----6-3----6p3---3--------------------

G|-5b----------------------------6------6---6-5-3----5---3h4---

D|------------------------------------------------5----5-----5-

A|-------------------------------------------------------------

E|-------------------------------------------------------------



e|---------------------------------------------------------------

B|---------------------------------------------------------------

G|-------------------------------------------3-0-4-0-5-0-6-0-7---

D|-5p3---5p3---3-------------------------5v--------------------5v

A|-----5-----5---5-4-3-------------------------------------------

E|---------------------6--6p5p3-s1-1s3---------------------------



|--------------------|

palm mute



Me gusta ver la leche en tu cara,

me gusta estar siempre a full,

salgo a pintar paredes por las noches,

probate el jumper que vamos a charlar







G5-Bb5 G5-Bb5 - C5 X4 (un golpe cada nota)





Final (mas que nada hay que agarrarle bien el ritmo)



e|-3-x-x-3-x-3-3-3--3-3-3-3-3-------------------------

B|-3-x-x-3-x-3-3-3--3-3-3-3-3---------------------3---

G|-----------------------------X4----------3b-----3b--

D|------------------------------------3h5------5------

A|----------------------------------------------------

E|----------------------------------------------------

Letra subida por: Anónimo

Discos en los que aparece este acorde: Probame... , Probame... (2003)

El acorde de Bailando de Jovenes Pordioseros es una versión de la canción original realizada por colaboradores/usuarios de Coveralia.

¿Has encontrado algún error en esta página? Envíanos tu corrección del acorde