música
Buscador

Acorde de Back, Baby - Jessica Pratt

Letra de Back, Baby

Capo 3rd fret

Chords are relative to capo





Fmaj7 G Cmaj7 F Em Am Gm A D G



e|----5----------------------------------------------------------3------3-------|

B|----5-------3-------5-------1------0------1------3------2------2------0-------|

G|----5-------4-------4-------2------0------2------3------2------3------0-------|

D|----3-------5-------5-------3------2------2------5------2------0------0-------|

A|---(3)------5-------3-------3------2------0------5------0-------------2-------|

E|---(3)------3------(3)------1------0-------------3--------------------3-------|





Fig.1

Am Cmaj7

e|----------------------------0-|

B|-------------------------0----|

G|---5-4-2-0------------0-------|

D|-----------2-0----------------|

A|---------------3-0------------|

E|------------------------------|







Fmaj7 G Cmaj7

sometimes i pray for the rain



Cmaj7 Fmaj7 Cmaj7

you know i try to see things from your side

Fmaj7 Cmaj7

to leave things undefined

Fmaj7 G

but where would you advise

F Cmaj7

that i generate a new design

F Cmaj7

for the missing piece i have to disguise

F Cmaj7 G

saw a header in the paper that your love is just some myth i devised





Em F Cmaj7

but things like that you can never take back again oh oh

Em F Cmaj7

things like that you can never take back again oh





Am Fig.1 Cmaj7

if there was a time when you loved me

Am Fig.1 Cmaj7

if there was a time when you said that you want me

G

to believe

Em F Cmaj7

that it can go back baby and

Em F Cmaj7

can't go back baby, i am

Fmaj7 G Cmaj7

and sometimes i pray for the rain

Fmaj7 Cmaj7

lalalala lala lam



Fmaj7 Cmaj7

lalalala lala lam

https://www.coveralia.com/acordes/back--baby-jessica-pratt.php





Cmaj7 Fmaj7 Cmaj7

you and your glass world that does rain

Fmaj7 Cmaj7

oh where time's a frozen thing

Fmaj7 G

it encloses you and its crystalline

F Cmaj7

looks so lovely but you'll have to decide

F Cmaj7

if you could play it in reverse then you'd find

F Cmaj7

that you'd better reconsider all the love you took in

G

and then cast aside





Em F Cmaj7

but things like that you can never take back again oh oh

Em F Cmaj7

things like that you can never take back again





Am Fig.1 Cmaj7

if there was a time when you loved me

Am Fig.1 Cmaj7

if there was a time when you said that you want me

G

to believe

Em F Cmaj7

that it can go back baby and

Em F Cmaj7

i can't go back baby, i am

Fmaj7 G Cmaj7

and sometimes i pray for the rain

Fmaj7 Cmaj7

lalalala lala lam



Fmaj7 Cmaj7

lalalala lala lam





Am Cmaj7

girl I know I'm losing time without you

Gm F

never had a second chance before this time

A D G

but things like that you can never do work out right

A D G

things like that well they never do work out right





Em F Cmaj7

can't go back baby and

Em F Cmaj7

can go back baby, i am

Fmaj7 G Cmaj7

and sometimes i pray for the rain

Fmaj7 Cmaj7

lalalala lala lam



Fmaj7 Cmaj7

lalalala lala lam

Letra subida por: Anónimo

Discos en los que aparece este acorde: On Your Own Love Again

El acorde de Back, Baby de Jessica Pratt es una versión de la canción original realizada por colaboradores/usuarios de Coveralia.

¿Has encontrado algún error en esta página? Envíanos tu corrección del acorde