música
Buscador

Acorde de Baby, What A Big Surprise - Chicago

Letra de Baby, What A Big Surprise



Int.:

C C G F C/G F C G

|-0--0--3-----------0---1---3--1--0--------0--3------

|-1--1--3--3--1-----1---1------------1--------3------

|-------------2--2--0---2---------------0-----4-------

|-------------------2---3---------------------5------

|-3--3--------------3---3---------------------5------

|-------3-----1-----3---1---------------------3------



C Dm F

Right before my very eyes,

C Dm F

I thought that you were only fakin' it,

C Dm F

And like before my heart was takin' it



Bb F C Dm

Baby, what a big surprise

Bb F

Right before my very eyes

Eb Bb

Oh, oh, uoh, oh, oh



C Dm F

Yesterday it seemed to me

C Dm F

My life was nothing more than wasted time

C Dm F

But here today you've softly changed my mind



Bb F C Dm

Baby, what a big surprise

Bb F

Right before my very eyes



C Eb Bb

|----------0--3---------|--------2----------------|-------6---9^10--6--18------

|--------1-------5^6--1-|------3-----7^8--7^8--3--|-----6----------------------

|------0----------------|----2--------------------|---7------------------------

https://www.coveralia.com/acordes/baby--what-a-big-surprise-chicago.php

|----2------------------|--0----------------------|-8--------------------------

|--3--------------------|-------------------------|----------------------------

|-----------------------|-------------------------|----------------------------

Oh, oh, oh, oh, oh, oh, oh, oh



Am G C

Just to be alone was a little more than I could take

Am G C

Then you came to stay, oh, oh, oh, oh, oh

Am G C

Hold me in the morning, love me in the afternoon

Am G Bb G

Help me find my way.





C Dm F

Now and then just like before,

C Dm F

I think about the love I’ve thrown away.

C Dm F

But now it doesn’t matter anyway



Bb F C Dm

Baby, what a big surprise

Bb F Eb Bb

Right before my very eyes

Bb F C Dm

Baby, what a big surprise

Bb F Eb Bb

Right before my very eyes

Bb F C Dm

Baby, what a big surprise

Bb F Eb Bb

Right before my very eyes

Bb F C Dm

Baby, what a big surprise

Bb F Eb Bb

Right before my very eyes

Letra subida por: Anónimo

El acorde de Baby, What A Big Surprise de Chicago es una versión de la canción original realizada por colaboradores/usuarios de Coveralia.

¿Has encontrado algún error en esta página? Envíanos tu corrección del acorde