música
Buscador

Acorde de Avenida Rivadavia - Manal

Letra de Avenida Rivadavia

Intro: E7/#9



C#m7 F#m7

Caminamos una calle sin hablar, Avenida Rivadavia.

C#m7 F#m7

Caminamos una calle sin hablar, Avenida Rivadavia.

F#7 F7 F#7 F7

Y pensé -é, pensé -é,

F#7-F7-E7/#9

cuando subiste a mi tren, mujer,



que yo no te vi.

C#m7

cuando subiste a mi tren, mujer,

F#m7 A C B

que yo no te vi, no te vi-i-i-i-i.



C#m7

La mañana incoherente me sonrió,

F#m7

una burla que volaba se escapó.

C#m7

La mañana incoherente me sonrió,

F#m7

una burla que volaba se escapó.



F#7 F7 F#7 F7

Y pensé -é, pensé -é,

F#7-F7-E7/#9

cuando subiste a mi tren, mujer,



que yo no te vi.

C#m7

cuando subiste a mi tren, mujer,

F#m7 A C B

que yo no te vi, no te vi-i-i-i-i.



Solo: C#m7 F#m7 C#m7 G#m7 F#m7 Em7 C#m7



C#m7 F#m7

Caminamos una calle sin hablar, Avenida Rivadavia.

C#m7 F#m7

Caminamos una calle sin hablar, Avenida Rivadavia.

F#7 F7 F#7 F7

Y pensé -é, pensé -é,

F#7-F7-E7/#9

https://www.coveralia.com/acordes/avenida-rivadavia-manal.php

cuando subiste a mi tren, mujer,



que yo no te vi.

C#m7

cuando subiste a mi tren, mujer,

F#m7 A C B

que yo no te vi, no te vi-i-i-i-i.



Fin: C#m7





Intro:

E7

*---------------------------*---------------------------*

*--/8-/8-/8--8--8-8-8-8-8/--*--/8-/8-/8--8--8-8-8-8-8\--*

*------------7--7-7-7-7-7/--*------------7--7-7-7-7-7\--*

*------------6--------------*------------6--------------*

*------------7--------------*------------7--------------*

*---------------------------*---------------------------*



Base:

C#m7 F#m7

*---12-9--7/9-12-9--7-9--*--5-2--0^2-5-2--5-2---*

*---12-9--7/9-12-9--7-9--*--5-2--0^2-5-2--5-2---*

**-----------------------*---------------------**x2

**-----------------------*---------------------**

*------------------------*----------------------*

*------------------------*----------------------*



F#7 F7 E7/#9

*------------------------*-----------*-----------/12-12-12-12-12-12---*

*---7--7--7----6--6--6---*-----------*---8--8----/12-12-12-12-12-12---*

**--9--9--9----8--8--8--**--F#7--F7--**--7--7------------------------**x5

**--8--8--8----7--7--7--**-----------**--6--6------------------------**

*---9--9--9----8--8--8---*-----------*---7--7-------------------------*

*------------------------*-----------*--------------------------------*



C#m7

*---12-12-12---11-11-11---*

*---12-12-12---11-11-11---*

**-----------------------**x2

**-----------------------**

*-------------------------*

*-------------------------*

Letra subida por: Anónimo

Discos en los que aparece este acorde: Manal , Manal (1973) , En Vivo En El Roxy , Manal En Vivo , En Obras Volumen 2

El acorde de Avenida Rivadavia de Manal es una versión de la canción original realizada por colaboradores/usuarios de Coveralia.

¿Has encontrado algún error en esta página? Envíanos tu corrección del acorde