música
Buscador

Acorde de Arrow - Mr. Big

Letra de Arrow

Intro: D9 D9/G X2 



D Bm Fm

The clock is ticking on the table in my room

D Bm Fm A

Funny how the time just slips away

G

An ordinary simple man

C

Who's lost a little piece of something

Em

Hold my breath and close my eyes

G

Say a little prayer



D Bm Fm

Here we go again hello

D Bm Fm A

I didn't see the end and so the story goes

D Bm

How can I be cool?

Fm A

I always play the fool

G

I need a shot of love

C

Look an arrow through the heart



D Bm Fm

My mind is open to the page of yesterday

D Bm Fm A

Isn't it a crime how love can go

G

I always knew there would come a day

C

When silence played the king of pain

Em

So I close my eyes and hold my breath

G

And contemplate a change



D Bm Fm

Here we go again hello

D Bm Fm A

I didn't see the end and so the story goes

D Bm

How can I be cool?

Fm A

I always play the fool

G

https://www.coveralia.com/acordes/arrow-mr--big.php

I need a shot of love

C

Look an arrow through the heart



F G F

I have my faith in life

G F G

I know the truth inside

C D

This time I swear it's gonna be better



SOLO



Em

Hold my breath and close my eyes

G

Say a little prayer



D Bm Fm

Here we go again hello

D Bm Fm A

I didn't see the end and so the story goes

D Bm

How can I be cool?

Fm A

I always play the fool

G

I need a shot of love

C

Look an arrow through the heart



D Bm Fm

The clock is ticking on the table in my room...



SOLO TAB



E|------------------------------------------------

B|------------------------------------------------

G|------------------------------------------------

D|-2H4-2-------------2H4-2------------------------

A|-------5-4---------------5-4-2------------------

E|-----------2-5~----------------5-2-5-2-5S7-0----



E|------------------------------------------------

B|------------------------------------------------

G|-2-2-------------2-2----------------------------

D|-----5-5-4-4-2-------5-5-4-0-2------------------

A|------------------------------------------------

E|------------------------------------------------

Letra subida por: Anónimo

Discos en los que aparece este acorde: Actual Size , Actual Size (Japan Edition)

El acorde de Arrow de Mr. Big es una versión de la canción original realizada por colaboradores/usuarios de Coveralia.

¿Has encontrado algún error en esta página? Envíanos tu corrección del acorde