música
Buscador

Acorde de Armageddon - Alkaline Trio

Letra de Armageddon



Acordes usados:



A B C# Em D#* Em*

e|-------------------------|

B|-------------------------|

G|-2--4--6--9----8----9----|

D|-2--4--6--9----x----x----|

A|-0--2--4--7----6----7----|

E|-------------------------|





Intro:



e|---------------------------------|_

B|---------------------------------| \

G|-9-9-9-9-9-9-9----6-6-6-6----2-2-| |

D|-9-9-9-9-9-9-9----6-6-6-6----2-2-| |---duas vezes

A|-7-7-7-7-7-7-7----4-4-4-4----0-0-| |

E|---------------------------------|_/





e|--------------------------------|

B|--------------------------------|

G|-9-9-9-9-9--8-8-8----4-4-4-4-4--|

D|-x-x-x-x-x--x-x-x----4-4-4-4-4--|

A|-7-7-7-7-7--6-6-6----2-2-2-2-2--|

E|--------------------------------|

Primeiro verso:





C# A

I wrote the words to this song on the back of a photograph



Em

Behind your back it goes



C# A Em

A little something like this it's way too big to miss high



C# A

Got a letter in the mail but the sender failed to let me



Em

Know where it came from



C# A B

Opened it up sure enough there we were arm in arm again





Em C# A

Em C# A







Segundo verso:



https://www.coveralia.com/acordes/armageddon-alkaline-trio.php



C# A

I know it's small but my last call's been called



Em

Half an hour ago



C# A

I know it's late but do you think you could please



Em

Fix it for me



C# A Em

Then I'll go I'll go alone I swear I won't tell a soul



C# A B

I'll drink this beer and write in fear of a song everybody hates







Chorus:





Em*

Armageddon, let the light in



C# B A

Before we say goodbye, give us something to believe in



Em*

Armageddon, we're not beggin



C# B A

For too much i don't think, need a goodbye kiss before we sink





Intro



Primeiro verso



Refrão



Ponte ( na parte do "We sink..." ):



C# B A

C# B A

C# B A

C# B A





Refrão





"Se naum consegue amar naum faça sofrer qm t ama..."

Letra subida por: Anónimo

Discos en los que aparece este acorde: From Here To Infirmary

El acorde de Armageddon de Alkaline Trio es una versión de la canción original realizada por colaboradores/usuarios de Coveralia.

¿Has encontrado algún error en esta página? Envíanos tu corrección del acorde