música
Buscador

Acorde de Are You Red..Y - The Clash

Letra de Are You Red..Y

Intro 

e|-----------------------------------------------------------------|

B|-----------------------------------------------------------------|

G|-----------------------------------------------------------------|

D|-----------------------------------------------------------------|

A|-----------------------------------------------------------------|

E|-7-7-7-x-7--7-7-5-4-5-2-2-2-x-2--2-0-2-0-7-7-7-x-7--7-7-9-10-12~-|

Opening chords

B--/ F#--/B--/E-D-A(alt.C#)

B--/ F#--/B--/A-G#-G

2nd guitar riff (over B F# B)

e ------------------|--------------------|--------------------|

b ------------------|--------------------|--------------------|

g ------------------|--------------------|--------------------|

d 9--9--9-9---9----|-11--11--11-11--11-|--9--9--9-9---9-------|

a ------------------|---9-----------9----|--------------------|

e -7--------7-------|--------------------|---7--------7-------|

B--/ F#--/B--/ E--B E-- B E--B

Enter --- Are you ready for war---war-----war

Repeat opening sequence throughout verses

B F#

High above the sattelites/Fill the Earth with colder nights

B E D

A(alt. C#)

Europe switches off it's lights/Are you ready for War?

B F#

War will never be sentimental/War never go for the regimental

B A-G#-G

War is intercontinental/Are you ready?

((Here's the fun part)))

e -7-7--5-7--5-7-9-5-|-7-7--5-7--5-4-5-2-|

b -7-7--5-7--5-7-9-5-|-7-7--5-7--5-4-5-2-|

g ------------------|----------------------|

d ------------------|----------------------|

a ------------------|----------------------|

e ------------------|----------------------|

e -7-7--5-7--5-7-9-5-|-12-12-12-10-10-9-9-|

b -7-7--5-7--5-7-9-5-|-12-12-12-10-10-9-9-|

g ------------------|------------------------|

d ------------------|-----------------------|

a ------------------|-----------------------|

e ------------------|-----------------------|

e -7-7--5-7--5-7-9-5-|-7-7--5-7--5-4-5-2-|

b -7-7--5-7--5-7-9-5-|-7-7--5-7--5-4-5-2-|

g ------------------|----------------------|

d ------------------|----------------------|

https://www.coveralia.com/acordes/are-you-red--y-the-clash.php
a ------------------|----------------------|

e ------------------|----------------------|

e -7-7--5-7--5-7-9-5-|-5-5-5-4-4--3-3--|

b -7-7--5-7--5-7-9-5-|-5-5-5-4-4--3-3--|

g ------------------|----------------------|

d ------------------|----------------------|

a ------------------|----------------------|

e ------------------|----------------------|

B F#

No use running in a mobile home/Everywhere is a target zone

B E D

A(alt. C#)

Berlin's ringing on the red brick phone/Are you ready for War?

B F#

War, will you deal in futuristics?/War is a project in logistics

B A-G#-G

War, all that will be ballistic/Are you ready?

Repeat fun part

E--B E--B E--B

Are you ready for war---war-----war

B F#

I ain't gonna lay down and die/Playing with the purple suicide

B E D

A(alt. C#)

Gonna fight those who burn the sky/Are you ready for War?

B F#

War, will you deal in futuristics?/War is a project in logistics

B A-G#-G

War, all that will be ballistic/Are you ready?





B F#

Vodka chilled in a Kremlin bar/Rye on the rocks in Omaha

B E D

A(alt. C#)

Raise my glass and smash it on the bar/Are you ready for War?

B F#

War, will you deal in futuristics?/War is a project in logistics

B A-G#-G

War, all that will be ballistic/Are you ready?

Incoming! Incoming! John Wayne! JW!

E--B E--B E--B

Are you ready for war---war-----war





Letra subida por: Anónimo

Discos en los que aparece este acorde: Cut The Crap

El acorde de Are You Red..Y de The Clash es una versión de la canción original realizada por colaboradores/usuarios de Coveralia.

¿Has encontrado algún error en esta página? Envíanos tu corrección del acorde