música
Buscador

Acorde de Arañando El Aire - Juanito Makande

DO#m*



x--------

--4------

--4------

--2------

--4------

x--------



Intro: FAm SIm (x2) FAm SIm DO#m DO#m-DOm-SIm



Estrofa:

FA#m SIm

Arañando el aire,

FA#m SIm

larga hambre tras de mi,

FA#m SIm

de pronto tus ojos,

DO#m DOm SIm

no no no noooooo, uoh oh oh,



droga nueva para mi.



---------------------------------------

---------------------------------------

----6------4---------------------------

---4------4------6h7h6h4---------------

--4------4-----------------7h4---------

---------------------------------------



FA#m SIm

Jugando a los malos,

FA#m SIm

muchas noches sin dormir,

FA#m SIm

y un cielo dorado,

DO#m DOm SIm

no no no nooooo, uoh oh oh,

FA#m Arpegio

yo lo pinto para ti,



FA#m7 RE

----------------------------------------------

-------2-------------------0------------------

----2----2---2---------2------2---2-----------

---2--2-----2--------4---4------4-------------

--------------------5-------------------------

-2--------------------------------------



MI

----------------------------------------------

-------0-------------0------------------------

---1-----1--1-----1-----1--1------------------

--2--2-----2-----2--2-----2-------------------

-4--------------------------------------

---------------0------------------------------

REm



----------------------------------------------

---------0---------------0--------------------

----2------2---2-----2-----2---2--------------

---4--4------4------3--3-----3----------------

--5----------------5--------------------------

https://www.coveralia.com/acordes/aranando-el-aire-juanito-makande.php
----------------------------------------------



(Arpegios)

FA#m7 RE

y una casa pa querernos,

MI FA#m7 RE

con macetas de hojas verdes,

MI FA#m7 REm

y los balcones abiertos,



(Aquí se acaban los arpegios)

SIm

y que el aire fresco entre.



SIm DO#m DO#m - DOm - SIm (x3)

SIm DO#m



SIm

Pensar en tu boca,

DO#m

echarte de menos,

SIm

fumarme un porrito, y

DO#m*

perderme en tu pelo,

SIm

decirte al oído,

DO#m

contigo me elevo,

REm DO#m SIm

me siento en el aire,volando muy lejos.





El resto es igual



Arañas mi carne,

y sangro de felicidad,

y no quisiera irme no,

no no no nooooo, uoh oh oh,

que yo contigo respirar.



Quisiera perderme,

y para no volver jamás,

y tu conmigo siempre,

no no no nooooo, uoh oh oh,

y una cama para amarnos,

y que suden nuestras carnes,

y que cuando el alba llegue,

con las sábanas me tape.



Pensar en tu boca,

echarte de menos,

fumarme un porrito, y

perderme en tu pelo,

decirte al oído,

contigo me elevo,

me siento en el aire,

volando muy lejos.







Letra subida por: Anónimo

Discos en los que aparece este acorde: Las Canciones Que Escribi Mientras Volaba

El acorde de Arañando El Aire de Juanito Makande es una versión de la canción original realizada por colaboradores/usuarios de Coveralia.

¿Has encontrado algún error en esta página? Envíanos tu corrección del acorde