música
Buscador

Acorde de Aprendizaje - Sui Generis

Letra de Aprendizaje

Intro: 

||---------------0------------------------

||------1-3/5--3---3-1------1----------1--

||--0h2----------------2-0-------0---0----

||-----------------------------2---3------

||----------------------------------------

||----------------------------------------



C Fmaj7 C fill1) Fmaj7

Aprendi a ser formal y cortes

Am(fill2)

cortandome el pelo

D G

una vez por mes

Am Am7+ Am7 Am6

y si me aplazo la formalidad

C D Gsus4 G C Fmaj7

es que nunca me gusto la sociedad



Viento del sur, oh lluvia de abril

quiero saber donde debo ir

no quiero estar sin poder crecer,

aprendiendo las lecciones para ser



Em Am



Am Dm

Y tuve muchos maestros

Em Am

de que aprender,

Am Dm Em

solo conocian su ciencia

Am

https://www.coveralia.com/acordes/aprendizaje-sui-generis.php

y el deber

C G Em Am

nadie se animo decir una verdad

C G

siempre el miedo fue tonto

E (Asus4 A G/A

oh





D G

Y el tiempo traera

D G

alguna mujer,

Bm Esus4 E Asus4 A

una casa pobre, años de aprender

Bm Bm7 Bm7 E

como compartir un tiempo de paz

D E Asus4

nuestro hijo traera todo

A D G D G

lo demas

D E Asus4 A D

el tendra nuevas respuestas para dar





fill 1 fill2

||--------------- --5p3--3--3-

||--3(4)-3-1---1- -----5----3-

||-----------2--- ----------2-

||--------------- ----------0-

||--------------- ------------

||--------------- ------------

Letra subida por: Anónimo

El acorde de Aprendizaje de Sui Generis es una versión de la canción original realizada por colaboradores/usuarios de Coveralia.

¿Has encontrado algún error en esta página? Envíanos tu corrección del acorde