música
Buscador

Acorde de Angels Fall Down - Skillet

Letra de Angels Fall Down

Intro: 

G - D (x4)





G D G D

I saw angels fall down at the glory of the Lord

F#m Bm G

And as I raise my hands I sing

G D G D

I saw angels fall down at the glory of the Lord

F#m Bm G

And as I hit the ground I sing





A Bm Em

And I fall down

F#m G

Afraid and shaking here

A Bm Em

And I fall down

F#m G

I'm perfectly safe right here





G D G D

I saw angels fall down at the glory of the Lord

F#m Bm G

The hurt and the broken find rest here

G D G D

I saw angels fall down at the beauty of the Lord

F#m Bm G

And as I kneeled I cried to know Him





A Bm Em

And I fall down

F#m G

Afraid and shaking here

A Bm Em

And I fall down

F#m G

I'm perfectly safe in here

Em F#m G

I'm perfectly safe in here

https://www.coveralia.com/acordes/angels-fall-down-skillet.php

Em F#m G

I'm perfectly safe in here





Guitar Solo:

E--------------|---------------|--------------|-----------------|

B--------------|---------------|--------------|-----------------|

G-----7---7h9--|-----7---7h9---|-----9---9h11-|-----12----11----|

D---0---0------|---------------|--------------|-----------------|

A--------------|---0---0-------|---7---7------|--10----10-------|

E--------------|---------------|--------------|-----------------|

D A Em G





Play guitar solo 6x





Guitar Solo Part 2:

E--------------------------------------------------

B--7---5---7---15-14--15--10-12--3--15-------------

G--------------------------------------------------

D A Em G



E---------------------21---------------------------

B--7---5---7---15-14------10-12--3/15--------------

G--------------------------------------------------

D A Em G



D A Em G

Yeah yeah yeah oh

D A Em G

Oh yeah yeah yeah

D A Em G

yeah yeah

D A Em G

Oh yeah Jesus, oh Jesus

D A Em G

Oh Oooooo yeah

D A Em G

Oh Oooooo yeah



D - A - Em - G (x4)

End on D

Letra subida por: Anónimo

Discos en los que aparece este acorde: Ardent Worship , Comatose Comes Alive (Deluxe Edition)

El acorde de Angels Fall Down de Skillet es una versión de la canción original realizada por colaboradores/usuarios de Coveralia.

¿Has encontrado algún error en esta página? Envíanos tu corrección del acorde