música
Buscador

Acorde de Angeles Del Olvido - Pier

Letra de Angeles Del Olvido

Intro



Fsus4 Fm

E|------8------------|

B|-------11--11-9----|

G|---10-----------10-| x4

D|-------------------|

A|-8-----------------|

E|-------------------|





Fm

Estoy todo sucio mas que el vidrio del car

Bbm

Mis huellas son huellas buscando libertad

Intro x2

Con un par de monedas se pudre el rancho

Bbm Cm Fm

Pierdo la esperanza, la tengo que comprar.





estribillo:



F5 D#5 F5-D#5-F5 F5-D#5-F5

Apuñalan indefensos corazones de cemento

F5 D#5 F5-D#5-F5 F5-D#5-F5

Llanto con sonido y sabor a gusto amargo

C#5 F5

Angeles del olvido

C#5 F5

Angeles del olvido

C#5 D#5

Angeles del olvido





Intro x2



(sigue igual q la 1er estrofa)

Demasiada guita para mi seco bienestar

Me siento atado a esta puta condena

Salven sus vidas y que dios los bendiga!

Curen sus ralles sapos de otro pozo!

https://www.coveralia.com/acordes/angeles-del-olvido-pier.php





Apuñalan indefensos corazones de cemento

Llanto con sonido y sabor a gusto amargo

Angeles del olvido

Angeles del olvido

Angeles del olvido



F5 Intro x4 y solo:



E|-------------------------------------------------------|

B|-------------------------------------------------------|

G|-------------------------------------------------------|

D|-1-b3---3--b6--b3-3---3--b6--b8-8--b10-10---10--b6--b3-|

A|-------------------------------------------------------|

E|-------------------------------------------------------|



E|-----------------------------------------------------------------------|

B|-----------------------------------------------------------------------|

G|-----------------------------------------------------------------------|

D|-1-b3---3--b6--b3-3---3--b6--b8-8--b10-10---10--b6--b3----1-h3-p1-1----|

A|--------------------------------------------------------------------3--|

E|-----------------------------------------------------------------------|





Apuñalan indefensos corazones de cemento

Llanto con sonido y sabor a gusto amargo

Angeles del olvido

Angeles del olvido

Angeles del olvido



Intro x4



Fin





B: bend

h: hammer-on

p: pull-off





Letra subida por: Anónimo

Discos en los que aparece este acorde: Seguir Latiendo , Alucinados Como La Primera Vez , La Ilusion Que Me Condena

El acorde de Angeles Del Olvido de Pier es una versión de la canción original realizada por colaboradores/usuarios de Coveralia.

¿Has encontrado algún error en esta página? Envíanos tu corrección del acorde