música
Buscador

Acorde de Ángel Caído - Pedro Guerra

Letra de Ángel Caído

ACORDES:



A x02220

F#m7 242252

C#m7 x42100

Fº 1x012x

E7 020100

F(#11) 133200

E74 020200

E74* 022230









INTRO (x2)



A A(#5) D Dm E7 A Bm A/C#

|-------------------------|-------0-1-0---0-0-------|--------------------|

|-------0-2-0---0-2-----2-|-----3---3---3-------0---|----5-----3-----2---|

|-----2-------2---2---2---|---2-----2-------------1-|------6-----4-----2-|

|---2-------------3-3-----|-0-------0---------0-----|--------------------|

|-0---------------0-------|-------------------------|-0--------2-----4---|

|-------------------------|-----------------0-------|--------------------|





F(#11) E74

|---------------0-------|

|-------0--0--------0---|

|-----2-----------2---2-|

|---3-------------------|

|-------------2---------|

|-1--------0------------|





A F#m7

A)Hay un sueño que ronda mi cara

C#m7

https://www.coveralia.com/acordes/angel-caido-pedro-guerra.php

y aparca en mi frente

F#m7 Fº

Hay un ángel caído en mi cama

E7

que quiere cogerme

A F#m7

Hay un tierno brillante equilibrio

C#m7

de luz en mi almohada

F#m7 Fº

Hay un hueco lugar de tu imagen

E7

conmigo en la cama

A F#m7 F(#11)

Hay un hueco lugar de tu imagen

E74 A

conmigo en la cama



(Intro)



A)Hay un triste reflejo de cielo

flotando en mi alma

Hay un libro desnudo de rima

que a veces me calma

Hay un dulce recuerdo de arena

soñando mi arena

Y una nube pintada de agua

que moja mi pena

Y una nube pintada de agua

E74 A E74*

que moja mi pena



(A capella)

B)Y una nube pintada de agua

que moja mi pena

Letra subida por: Anónimo

Discos en los que aparece este acorde: Vidas En Vivo

El acorde de Ángel Caído de Pedro Guerra es una versión de la canción original realizada por colaboradores/usuarios de Coveralia.

¿Has encontrado algún error en esta página? Envíanos tu corrección del acorde