música
Buscador

Acorde de Amor Prohibido - Quique Neira

Letra de Amor Prohibido



(intro)



D7-Gm-C-F-Dm-Gm-A-Dm-D7



E|-----------------------------------------------------

B|----------------------10/11--11----------------------

G|--10h9--7--9--10--7----------------------------------

D|------------------------------------12--10-----------

A|-----------------------------------------------------

E|-----------------------------------------------------





E|-----------------------------------------------------

B|-10h11--13--10---------------------------------------

G|----------------------10h9--7--9--10--7---10/12------

D|------------------------------------------------------

A|-----------------------------------------------------

E|-----------------------------------------------------



E|-----------------------------------------------------

B|-11-10-10h11h10--------------------------------------

G|-----------------12-10-10h12h10----------------------

D|---------------------------------14-12-10------------

A|-----------------------------------------------------

E|-----------------------------------------------------



E|------------------------------------2--|

B|-----------------------------------1---|

G|-10h12-10-12h10-------------------2----|

D|-------------------10------------0-----|

A|---------------------8-----------------|

E|----------------------10---------------|



https://www.coveralia.com/acordes/amor-prohibido-quique-neira.php

D7 Gm C F

Apesar de lo que dicen, todo en mi está bien

Dm Gm A Dm - D7

secaron las cicatrices de aquel amor de ayer

Gm C F

la distancia de tu boca, está matandome

Dm Gm A

esto es un amor prohibido y tu sacas de partido

Dm D7

a este pobre querer .... por culpa de tus dulces

Gm C F Dm

labios de veneno .. ojos de niña en cuerpo de mujer,

Gm A

toda mi ilusión has destruido

Dm D7

al decirme que este amor no puede ser...



(coro)

Gm C F Dm Gm

Amor prohibido, Amor perdido, ya sin ti no se vivir

A Dm

yo ya no quiero sentir junto a mi cuerpo otra piel

D7

mas que tu piel

Gm C F Dm Gm

Amor prohibido, Amor perdido toda mi ilusión has

A Dm - D7

destruido Amor prohibido





....Y SE MANTIENEN LOS ACORDES POR EL RESTO DE LA CANCIÓN...



Letra subida por: Anónimo

Discos en los que aparece este acorde: Cosas Buenas , Un Amor

El acorde de Amor Prohibido de Quique Neira es una versión de la canción original realizada por colaboradores/usuarios de Coveralia.

¿Has encontrado algún error en esta página? Envíanos tu corrección del acorde