música
Buscador

Acorde de Amiga Mía - Alejandro Sanz

Letra de Amiga Mía

*************************** AcOrDeS ***********************************

Bm* B7 Em7 Em A A6 G F# F#7 F#m F#m7 F#m8 D D/G

e |-2---2----0---0----0----0----3----2----2----2-----2-----2----2---0-|

B |-2---3----2---0----2----2----3----2----2----2-----3-----3----3---3-|

G |-2---2----0---0----2----2----0----3----3----2-----2-----2----2---2-|

D |-4---3----2---2----2----0----0----4----2----4-----4-----2----0---0-|

A |-2---2----2---2----0----0----0----4----4----4-----4-----4----0---0-|

E |-2---2----0---0----0----0----3----2----2----2-----2-----2----0---2-|

***********************************************************************



InTrO:

|1RASGUEO|

Bm* Em7 A A6 G - F#7

1e|-----------------------------------------------------------------------------|

2B|-2---2---2----2----2---2---2----2---2---2----2----2----2---2---2---2---------|

3G|--4----4---4----4---0----0---0---0---2----2----2---2----2----2---2--2--------|

4D|---4----4---4----4---2----2---2---2---2----2----2---2----0----0---0--0-------|

5A|-----------------------------------------------------------------------------|

(ESTA ES UNA BASE PARA QUE SAQUEN EL INTRO, NO HAY MUCHO QUE CAMBIARLE)



Bm* Em7

Amiga Mía Lo Se Solo Vives Por El Que Lo Sabe También

A

Pero El No Te Ve Como Yo Suplicarle A Mi Boca

F#m

Que Diga Que Me Ha Confesado Entre Copas

Em

Que Es Con Tu Piel Con Quien Sueña De Noche

F#7

Y Que Enloquece Con Cada Botón Que

Bm*

Te Desabrochas Pensando En Sus Manos

Em7

El No Te Ha Visto Temblar, Esperando

F# F#7

Una Palabra, Algún Gesto Un Abrazo

Bm

El No Te Ve Como Yo Suspirando

B7

Con Los Ojitos Abiertos De Par En Par

Em

Escucharle Nombrarle.

F#7

!Ay Amiga Mía Lo Se Y El También.



****Se Repite Intro*****



Bm*

Amiga Mía No Se Que Decir

Em7

Ni Que Hacer Para Verte Feliz

G

Ojalá Pudiera Mandar En El Alma

D

O En La Libertad Que Es Lo Que A El Le Hace Falta

F# F#7

Llenarte Los Bolsillos De Guerras Ganadas

Bm A

De Sueños E Ilusiones Renovadas

G

Yo Quiero Regalarte Una Poesía

A

Tu Piensas Que Estoy Dando Las Noticias.



D

Amiga Mía, Ojalá Algún Día Escuchando

A

Mi Canción De Pronto, Entiendas

G

Que Lo Que Nunca Quise Fue Contar Tu Historia

D/G Em A

https://www.coveralia.com/acordes/amiga-mia-alejandro-sanz.php

Porque Pudiera Resultar Conmovedora

D

Pero Perdona Amiga Mía

A

No Es Inteligencia Ni Sabiduría

G

Esta Es Mi Manera De Decir Las Cosas

A A6

No Es Que Sea Mi Trabajo Es Que Es Mi Idioma.



D F#m F#m7 F#m8 F#7

Amiga Mía Princesa De Un Cuento Infinito

Bm G A

Amiga Mía, Tan Sólo Pretendo Que Cuentes Conmigo

D F#m F#m7 F#m8 F#7

Amiga Mía, A Ver Si Uno De Estos Días

Bm F#m

Por Fin Aprendo A Hablar

G

Sin Tener Que Dar Tantos Rodeos

Em

Que Toda Esta Historia

G A D G – F#7

Me Importa Porque Eres Mi Amiga.



***** InTrO *****



Bm* Em7

Amiga Mía Lo Se Solo Vives Por El Que Lo Sabe También

A

Pero El No Te Ve Como Yo Suplicarle A Mi Boca

F#m

Que Diga Que Me Ha Confesado Entre Copas

Em

Que Es Con Tu Piel Con Quien Sueña De Noche



Bm*

Amiga Mía No Se Que Decir

Em7

Ni Que Hacer Para Verte Feliz

G

Ojalá Pudiera Mandar En El Alma

D

O En La Libertad Que Es Lo Que A El Le Hace Falta

F# F#7

Llenarte Los Bolsillos De Guerras Ganadas

Bm A

De Sueños E Ilusiones Renovadas

G

Yo Quiero Regalarte Una Poesía

A

Tu Piensas Que Estoy Dando Las Noticias.



D F#m F#m7 F#m8 F#7

Amiga Mía Princesa De Un Cuento Infinito

Bm G A

Amiga Mía, Tan Sólo Pretendo Que Cuentes Conmigo

D F#m F#m7 F#m8 F#7

Amiga Mía, A Ver Si Uno De Estos Días

Bm F#m

Por Fin Aprendo A Hablar

G

Sin Tener Que Dar Tantos Rodeos

Em

Que Toda Esta Historia

G A D G – F#7

Me Importa Porque Eres Mi Amiga. ...





Letra subida por: Anónimo

El acorde de Amiga Mía de Alejandro Sanz es una versión de la canción original realizada por colaboradores/usuarios de Coveralia.

¿Has encontrado algún error en esta página? Envíanos tu corrección del acorde