música
Buscador

Acorde de Always Will Be - Hammerfall

Letra de Always Will Be

 E|------------------------------------------------- ----------------------------------- 

H|------------------------------------------------- -----------------------------------

G|----13----13-13-13-13-11-11-13-13-9-9-11-11----9s 8-8--8s9s8-------------------------

D|------------------------------------------------- ------------11-9-11----------------

A|------------------------------------------------- -----------------------------------

E|------------------------------------------------- -----------------------------------



E|------------------------------------------------- ----------------------------------

H|------------------------------------------------- ----------------------------------

G|-------------------------11-------11-13-------11- 13s14s13-11-----------------------

D|-------11-13-14-11-13-14----13-14----------14---- ----------------------------------

A|----11------------------------------------------- ----------------------------------

E|------------------------------------------------- ----------------------------------



E|------------------------------------------------- ----------------------------------

H|-------14----16----17----16----14-----16--14s12-1 2---12-14-16----------------------

G|----13----13----13----13----13------------------- ----------------------------------

D|------------------------------------------------- ----------------------------------

A|------------------------------------------------- ----------------------------------

E|------------------------------------------------- ----------------------------------



E|------------------------------------------------- ----------------------------------

H|-16s17--14-16-17---14-16-17--16-14---14--14-16-14 -16-17-16-17-19--21--21s22s21--19-

G|---------------------------------------16-------- ----------------------------------

D|------------------------------------------------- ----------------------------------

A|------------------------------------------------- ----------------------------------

E|------------------------------------------------- ----------------------------------





Intro:

Dm C Am

Dm F C



Dm C Am

Our sun is set, our day is done, I?m left here wondering

Dm F C

Is this the end, my final words to you

Dm C Am

Day turned to night and now you?re gone, I?m left here pondering

Dm F C

Can this be true, are we really through





Am G F C

You were the wind beneath my wings, taught me how to fly

Am C D

With you I lived among the kings, how could this ever die





F Am F G

So I say farewell, I?m yours forever,

Dm F G Am

and I Always Will Be





Dm C Am

We were one, we were all, we were the only

https://www.coveralia.com/acordes/always-will-be-hammerfall.php

Dm F C

Future full of hope, nothing could stand in our way

Dm C Am

But dreams can change, visions fall, I feel so lonely

Dm F C

I would walk through fire for just one more day





Am G F C

You were the angel of my life, taught me to be free

Am C D

Now I?m a stranger in your eyes, walls are closing in on me





F Am F G

So I say farewell, I?m yours forever

Dm F G Am

And I Always Will Be

F Am F G

Missing you, in my heart you are The One

Dm F G Am

And you Always Will Be





Em D Bm Em

When I turn to the east, I see no dawn,

Em D Bm

but after darkness comes the light

Em D Bm Em

And when I turn to the west, the silent night hides all

F C G

Where is the light that shines so bright





F Am F G

So I say farewell, I?m yours forever

Dm F G Am

And I Always Will Be

F Am F G

Missing you, in my heart you are The One

Dm F G Am

And you Always Will Be





F# Bbm F# G# D#m F# G# Bbm

Nah-nah-na-nah-nah-nah-nah-nah-nah-nah-nah and you Always Will Be

F# Bbm F# G# D#m F# G# Bbm

Nah-nah-na-nah-nah-nah-nah-nah-nah-nah-nah and you Always Will Be



D#m F# G# Bbm

And you Always Will Be

D#m

my Little One you are

F# G# C#

And you Always Will Be

Letra subida por: Anónimo

El acorde de Always Will Be de Hammerfall es una versión de la canción original realizada por colaboradores/usuarios de Coveralia.

¿Has encontrado algún error en esta página? Envíanos tu corrección del acorde