música
Buscador

Acorde de Alguien - Obus

Letra de Alguien

Intro

1-------------------|----------------|

2-------------------|----------------|

3---9--8--9--11---8-|--9--8--9--11---|

4-------------------|----------------|

5-------------------|----------------|

6-------------------|----------------|



Se repite 4 veces la Intro.

Y al final de la cuarta vez se añade esto:



1---------------|

2---------------|

3-9-9---9--8----|

4-9-9---9--8--9-|

5-7-7---7--6--9-|

6-------------7-|



Verse

1---------|--7----7--6---|-----------------|--------------|

2---------|--7----7--7---|-----------------|--------------|

3--11--9--|--9----9--6---|--11---11-9---4--|-----------4--|

4--11--9--|--9----9--4---|--11---11-9---4--|---------2----|

5---9--7--|--7----7------|---9----9-7---2--|---2--4-------|

6---------|--------------|-----------------|--------------|



Se repite 2 veces sin cantar y a la terecera empieza fortu:



Verse

Sigue mi sombra, alguien oculto en la oscuridad



Verse

Un frío aliento, llena mi cuerpo de terror.



Estribillo

1--------------------|--------------------|-----------2-|

2--------------------|--------------------|-----------2-|

3--------------------|--------------------|-------------|

4--4--4--4-----------|--4--4--4-----------|--------4----|

5--4--4--4--2--4--7b-|--4--4--4--2--4--7b-|--4--2--4----|

6--2--2--2-----------|--2--2--2-----------|--------2----|

Y se que oculto entre las sombras acecha, una victima más



1-------------------|--------------------|

2-------------------|--------------------|

3-------------------|---9--9---9---8-----|

4--4--4--4----------|---9--9---9---8--9--|

5--4--4--4--2--4--7-|---7--7---7---6--9--|

6--2--2--2----------|-----------------7--|

Y se que oculto entre las sombras... ¡Un ser sinientro me ve!



Verse 2 veces sin cantar



Verse

Luce el asfalto y siento garras en el corazón



Verse

El miedo me agarrota y no responden mis pies

https://www.coveralia.com/acordes/alguien-obus.php





Estribillo



Solo.

1--12b--12-14--12----14-|--12b--14-12-9-12-9----9--|

2-----------------14----|--------------------------|

3-----------------------|--------------------------|

4-----------------------|--------------------------|

5-----------------------|--------------------------|

6-----------------------|--------------------------|



1--12-9----9-12--12--12-9-----9--------|

2-------12-----------------12---12--10-|

3--------------------------------------|

4--------------------------------------|

5--------------------------------------|

6--------------------------------------|



1-----9----------|-----------------|-------------14-17-|

2--12---10-------|-----------------|-------------------|

3----------11----|-6-6-------------|-6--6--------------|

4--------------9-|-----9--7---7--9-|-------7-----------|

5----------------|----------9------|----------9--------|

6----------------|-----------------|-------------------|



1--17b--17b--17-14-----12b-|------10-|--12b--12b--9----9-|

2------------------17------|---12----|--------------12---|

3--------------------------|---------|-------------------|

4--------------------------|---------|-------------------|

5--------------------------|---------|-------------------|

6--------------------------|---------|-------------------|



1------------|--5----------------------|----------------|

2--10--------|--5----------------------|----------------|

3------11----|-------------------------|----------4b-4b-|

4----------4-|----4--4--7------4--7--4-|--7--7--4-------|

5------------|-------------7-----------|----------------|

6------------|-------------------------|----------------|



1--17b--17b--17b-17-14-12-|--12b--12b--14b--12-12b-|

2-------------------------|------------------------|

3-------------------------|------------------------|

4-------------------------|------------------------|

5-------------------------|------------------------|

6-------------------------|------------------------|



Verse

Mi mente inventa bestias, persiguiéndome



Verse

Las sombras se convierten en sadicos asesinos



Estribillo.





Letra subida por: Anónimo

Discos en los que aparece este acorde: El Que Mas

El acorde de Alguien de Obus es una versión de la canción original realizada por colaboradores/usuarios de Coveralia.

¿Has encontrado algún error en esta página? Envíanos tu corrección del acorde