música
Buscador

Acorde de Air - Jason Becker

Letra de Air

|-----|--------|--------|--------|-------|--------|

|-----|--------|--------|--------|-------|--------|

|-----|--------|--------|--4--7--|-6-----|--------|

|-----|-----4--|--5--7--|--------|-------|--4--5--|

|--5--|--7-----|--------|--------|----7--|--------|

|-----|--------|--------|--------|-------|--------|







|--------|---------|--------|---------|--------|--------|------------|--------|--------|

|--------|---------|--------|---------|--------|--------|--5h7p5-----|--------|--------|

|-----4--|--6h7/9--|--7-----|---------|-----6--|--7--7--|------------|-----4--|--6--7--|

|--7-----|---------|--------|------7--|--9-----|--------|---------5--|--7-----|--------|

|--------|---------|-----9--|--10-----|--------|--------|------------|--------|--------|

|--------|---------|--------|---------|--------|--------|------------|--------|--------|





|---------|--------|--------|--------|--------|-------------|--------|--------|

|--5--5^--|--------|--------|--------|--------|-------------|--------|--------|

|---------|--7-----|--------|--------|--4--7--|--7p6~~~-----|--------|-----4--|

|---------|--------|-----4--|--5--7--|--------|-------------|--4--5--|--7-----|

|---------|-----5--|--7-----|--------|--------|----------7--|--------|--------|

https://www.coveralia.com/acordes/air-jason-becker.php
|---------|--------|--------|--------|--------|-------------|--------|--------|







|---------|-------------|---------|--------|--------|--------|--------|--------|--------|

|---------|-------------|---------|--------|-----7--|--5-----|--------|--------|--5--7--|

|--6h7/9--|--9p7~~~-----|---------|-----6--|--7-----|--------|-----4--|--6--7--|--------|

|---------|-------------|------7--|--9-----|--------|-----5--|--7-----|--------|--------|

|---------|----------9--|--10-----|--------|--------|--------|--------|--------|--------|

|---------|-------------|---------|--------|--------|--------|--------|--------|--------|







|--------------|---------9--12--|--17~~~~~~--|--16p14~~~--|~~~~~~--||

|--------------|-----10---------|------------|------------|--------||

|-----------7--|--9-------------|------------|------------|--------||

|--------7-----|----------------|------------|------------|--------||

|--5--9--------|----------------|------------|------------|--------||

|--------------|----------------|------------|------------|--------||





Discos en los que aparece este acorde: Perpetual Burn

El acorde de Air de Jason Becker es una versión de la canción original realizada por colaboradores/usuarios de Coveralia.

¿Has encontrado algún error en esta página? Envíanos tu corrección del acorde