música
Buscador

Acorde de Addicted To Pain - Alter Bridge

Letra de Addicted To Pain

Tuning: C# G# C# F# A# D# (Drop C#)



VERSE:

Tell me how it feels to live a lie...Tell me do you know that it won't ever be the same

C#5                                 E5
e|----------------------------------------------------------------------------------------|
B|----------------------------------------------------------------------------------------|
G|--7----------------------------------10-------------------------------------------------|
D|--7----------------------------------10-------------------------------------------------|
A|--5----------------------------------8--------------------------------------------------|
E|----------------------------------------------------------------------------------------|

You can't deny, the house of cards just hit the floor

B5             A5                          C#5 
e|---------------------------------------------------------------------------|
B|---------------------------------------------------------------------------|
G|--5--------------3---------------------------7-----------------------------|
D|--5--------------3---------------------------7-----------------------------|
A|--3--------------1---------------------------5-----------------------------|
E|---------------------------------------------------------------------------|

just repaet these chords for verse you can find out the strumming by yourself... its easy

CHORUS:

You're addicted to pain. Too blind to see you're lost in the shadows

C#maj           A5      Bsus           Asus                C#maj
e|-2-(0)-------------------3---------------1-------------------2------------------|
B|-3--3--------------------6---------------4-------------------3------------------|
G|-2--2-------------3------5---------------3-------------------2------------------|
D|-0--0-------------3------3---------------1-------------------0------------------|
A|-0--0-------------1------3---------------1------------------(0)-----------------|
E|-0--0--------------------3---------------1------------------(0)-----------------|

Too addicted to face... In time you're gonna lose it ......all

C#maj           A5      Bsus               Asus                C#maj
e|-2-(0)-------------------3--------------------1-------------------2------------------|
B|-3--3--------------------6--------------------4-------------------3------------------|
G|-2--2-------------3------5--------------------3-------------------2------------------|
D|-0--0-------------3------3--------------------1-------------------0------------------|
A|-0--0-------------1------3--------------------1------------------(0)-----------------|
E|-0--0--------------------3--------------------1------------------(0)-----------------|

Just mess around with open strings for the C#Maj Chord.

BRIDGE BEFORE THE SECOND VERSE (Hit the Strings hard and loud)

e|-------------------------|I prefer   |----x-----x----x----x--------------------------|
B|---7-----10-----5-----3--|to play it |----7----10----5----3--------------------------|
G|---7-----10-----5-----3--|that way   |----x-----x----x----x--------------------------|
D|---7-----10-----5-----3--|to give it |----7----10----5----3--------------------------|
A|---5-----8------3-----1--|a little   |----5-----8----3----1--------------------------|
E|-------------------------|more depth |----7----10----5----3--------------------------|

Play Verse again

Play Second Chorus

BRIDGE

(The Bridge is played the first time witout Lyrics after that he starts singing:

Cry                   out                You know it now
    C#5      D5          C#5 C5        C#5    G5     C#5 E5 C#5
e|---------------------------------------------------------------------------|
B|---------------------------------------------------------------------------|
G|---------------------------------------------------------------------------|
D|--0-0-0-0--13-13-13-13-0-11-11-11-11-0-0-0-0-6-6-6-6-0-3p-0----------------|
A|--0-0-0-0--13-13-13-13-0-11-11-11-11-0-0-0-0-6-6-6-6-0-3p-0----------------|
E|--0-0-0-0--13-13-13-13-0-11-11-11-11-0-0-0-0-6-6-6-6-0-3p-0----------------|

C#5      D5          C#5 C5        C#5      D5
e|---------------------------------------------------------------------------|
B|---------------------------------------------------------------------------|
G|---------------------------------------------------------------------------|
D|--0-0-0-0--13-13-13-13-0-11-11-11-11-0-0-0-0-1-1-1-1-1-1-1-1---------------|
A|--0-0-0-0--13-13-13-13-0-11-11-11-11-0-0-0-0-1-1-1-1-1-1-1-1---------------|
E|--0-0-0-0--13-13-13-13-0-11-11-11-11-0-0-0-0-1-1-1-1-1-1-1-1---------------|

INTERLUDE:

just play the verse chords start with C# the second time he is doing a chord variation 
You can find out the strumming by yourself
                                                 You're addicted....(Last Chorus Starts)
e|-------------------------------------0-----------2------------------------------|
B|-------------------------------------11--(5)-----3------------------------------|
G|-7--10--5--3----7--10--9--7--5/7--7--10-- 5--3---2------------------------------|
D|-7--10--5--3----7--10--9--7--5/7--7--8--- 5--3---0------------------------------|
A|-5--8---3--1----5--8---7--5--3/5--5--8--- 3--1----------------------------------|
E|--------------------------------------------------------------------------------|

OUTRO:

Just play the Bridge again 2x and End on the D5 Chord
Hope you enjoy it and let me know any corrections.

************************************

| /   slide up
| \   slide down
| H   hammer-on
| p   pull-off
| ~   vibrato
| +   harmonic
| x   Mute note
| B   Bend
| pb  Pre-bend
| br  Bend release
| pbr Pre-bend release
| brb Bend release bend

************************************


Letra subida por: Anónimo

Discos en los que aparece este acorde: Fortress

El acorde de Addicted To Pain de Alter Bridge es una versión de la canción original realizada por colaboradores/usuarios de Coveralia.

¿Has encontrado algún error en esta página? Envíanos tu corrección del acorde