música
Buscador

Acorde de Across The Universe - The Beatles

Letra de Across The Universe



INTRO:

E|----2--------10--------9----------7--------5--------2------------------------------------------------------

B|----3--------10--------10--------7--------5--------2------------------------------------------------------

G|----------------------------------------------------------------------------------------------------------------

D|--------0--------0---------------------------------------------------------------------------------------------

A|----------------------------------------------------------------------------------------------------------------

E|----------------------------------------------------------------------------------------------------------------



Arranjo em F#m:

E|----2----2----2----2----2----2----2----2-------------------------------------------------------------------

B|----2----2----2----2----2----2----2----2-------------------------------------------------------------------

G|----2----4----2----4----2----4----2----4-------------------------------------------------------------------

D|----4----4----4----4----4----4----4----4-------------------------------------------------------------------

A|----4----4----4----4----4----4----4----4-------------------------------------------------------------------

E|----2----2----2----2----2----2----2----2-------------------------------------------------------------------



Arranjo em A:

E|----0----0----0----0----0----0----0----0-------------------------------------------------------------------

B|----2----2----2----2----2----2----2----2-------------------------------------------------------------------

G|----2----4----2----4----2----4----2----4-------------------------------------------------------------------

D|----2----2----2----2----2----2----2----2-------------------------------------------------------------------

A|----0----0----0----0----0----0----0----0-------------------------------------------------------------------

E|-----------------------------------------------------------------------------------------------------------------





D Bm F#m

Words are flowing out like endless rain into a paper cup

Em7 A A7

They slither while they pass they slip away across the universe

D Bm F#m

Pools of sorrow, waves of joy are drifting through my opened mind

Em7 Gm

Possessing and caressing me



D A7sus4

Jai Guru Deva Om

A7

Nothing's gonna change my word

G D

Nothing's gonna change my word

A7

Nothing's gonna change my word

G D

Nothing's gonna change my word

https://www.coveralia.com/acordes/across-the-universe-the-beatles.php



D Bm F#m Em7

Images of broken light which dance before me like a million eyes

A A7

They call me on and on across the universe

D Bm F#m

Thoughts meander like a restless wind inside a letterbox

Em7 A A7

They tumble blindly as they make their way across the universe



D A7sus4

Jai Guru Deva Om

A7

Nothing's gonna change my word

G D

Nothing's gonna change my word

A7

Nothing's gonna change my word

G D

Nothing's gonna change my word



D Bm

Sounds of laughter, shades of earth

F#m

are ringing through my opened ears

Em7 Gm

Inciting and inviting me

D Bm F#m

Limitless, undying love which shines

Em7

around me like a million suns

A A7

And calls me on and on across the universe



D A7sus4

Jai Guru Deva Om

A7

Nothing's gonna change my word

G D

Nothing's gonna change my word

A7

Nothing's gonna change my word

G D

Nothing's gonna change my word

Letra subida por: Anónimo

El acorde de Across The Universe de The Beatles es una versión de la canción original realizada por colaboradores/usuarios de Coveralia.

¿Has encontrado algún error en esta página? Envíanos tu corrección del acorde