Quantcast
música
Buscador

Acorde de A Veces Vuelvo - Catupecu Machu

Letra de A Veces Vuelvo

Intro: Obviamente... el bajo del acorde y el acorde hacelos 



las veces que sean necesarias...

INTRO

ocultar esta pestaña C# C#

e-------------x---------------x------------I

b-------------6---------------6------------I

g-------------6---------------6------------I

d-------------x---------------x------------I

a--4-4-4-4-4--4--4-4-4-4-4-4--4------------I

E-------------x---------------x------------I

INTRO:

Olvido todo este frio reunido de una sola vez.

De vez en cuando, cada tanto

los juegos prohibidos nos sacan ese frio.

Escurro entre tus dedos

tus canciones, tus mitos hoy.

e-------------x---------------x------------I

b-------------x---------------x------------I

g-------------8---------------8------------I

d-------------x---------------x------------I

a-------------6---------------6-------------I

E-------------x---------------x------------I

precoro



Y es que estamos desesperados(en esta parte se combina el intro con el pre)

por encontrarnos y vernos hoy

y vernos hoy que...



Estribillo



F#5 A#5

Mas deseo mas me alejo

G#5

soy un extraño aqui en mi cuerpo

F#5 A#5

tanta calma desespero

G#5

salgo mucho a veces vuelvo



F#5 A#5

Mas deseo mas me alejo

G#5

soy un extraño aqui en mi cuerpo

F#5 A#5

tanta calma desespero

G#5 G#5 G#5 INTRO (CHA CHAN).

salgo mucho a veces vuelvoooooooo



Crujen los maderos de viejos andenes.

Las vias muertas nos quieren llevar

a nuevos cruces infinitos

Destinos imposibles,

noches de nunca acabar.



Pre-Estribillo



C#5

Y es que estamos desesperados

https://www.coveralia.com/acordes/a-veces-vuelvo-catupecu-machu.php

D#5

por encontrarnos y vernos hoy

C#5 D#5

Maaaa aaaaaas





Estribillo



F#5 A#5

Mas deseo mas me alejo

D#5 C#5

soy un extraño aqui en mi cuerpo

F#5 A#5

tanta calma desespero

D#5 C#5

salgo mucho a veces vuelvo



F#5 A#5

Mas deseo mas me alejo

D#5 C#5

soy un extraño aqui en mi cuerpo

F#5 A#5

tanta calma desespero

D#5 C#5

salgo mucho a veces vuelvo

C#5 D#5

Maaaaaa aaaasss

PUNTEO(ES ALGO ASI)

|---------------------------------------|

|--------------------------------------|

|-------------------------666----8--------|

|-----------4-6--888-444------66---8-6----|

|-------4-6-----------------------------|

|--4-6----------------------------------|



|---------------------------------------|

|---------------------------------------|

|---------------------------------------|

|------------666-44-333----------------|

|-------4-6-------------666666----------|

|--4-6------------------444444----------|

(G#



|---------------------------------------|

|---------------------------------------|

|-----------------------6-5-----6-8-|

|------------------8-6------6-8-------|

|------4-3-----4-6----------------------|

|--4-2-----4-6--------------------------|

x1

|----------------------------------------|

|----------------------------------------|

|----------------------------------------|

|-----------666--55-33333------------|

|-------4-6---------------666666---------|

|--4-6--------------------444444---------|

(G#



Letra subida por: Anónimo

El acorde de A Veces Vuelvo de Catupecu Machu es una versión de la canción original realizada por colaboradores/usuarios de Coveralia.

¿Has encontrado algún error en esta página? Envíanos tu corrección del acorde