música
Buscador

Acorde de A Todos Ellos - Disidencia

Letra de A Todos Ellos

G-----------    G------------------------/
D--2-2-2-2--    D------------------------/
A-----------    A----5-7-2----5-7-2------/
E-----------    E--3--------3------------/

G--------------------------/
D--------------------------/
A----2-0-------3-----------/ X2
E--3-----3-2-0-------------/
A los que viven sin más censuras
a los que lanzan las libertades
a los que aprecian estas tierras
a los que caen con las verdades

G------------------------/
D------------------------/
A----5-7-3----5-7-3------/
E--3--------3-------3----/
A LOS QUE SE PREOCUPAN POR LOS DEMÁS
QUE NO LES IMPORTA DAR MÁS Y MÁS,
A LOS QUE MUESTRAN SU CORAZÓN
A LOS QUE SIEMPRE USAN LA RAZÓN,
A LOS QUE VIVEN CON HUMILDAD SIN YUGOS SIN EGOS SIN ENCASILLAR,
A LOS QUE SUFREN LA DESIGUALDAD,
A LOS QUE INTENTAN VOLVER A EMPEZAR

G--------------------/
D--------------------/
A----5-2-3-5---------/
E--3-----------------/

G--------------------------/
D--------------------------/
A----2-0-------3-----------/ X2
E--3-----3-2-0-------------/
A los que luchan junto a los miedos
a los que ahogan las desigualdades
a los que unen diferentes mundos
a los que invaden mil ansiedades

G------------------------/
D------------------------/
A----5-7-3----5-7-3---5--/
E--3--------3-------3----/
A LOS QUE SE PREOCUPAN POR LOS DEMÁS
QUE NO LES IMPORTA DAR MÁS Y MÁS,
A LOS QUE MUESTRAN SU CORAZÓN,
A LOS QUE SIEMPRE USAN LA RAZÓN,

G-----------------
D-----------------
A----7---7-8-9-5--
E--5--------------
A TODOS ELLOS POR CONTINUAR
DE ESPALDAS AL ODIO QUE NOS HACE ODIAR,
NUNCA SERÁ EN VANO DESESPERAR
SI HAY NUEVOS CIMIENTOS AÚN POR LEVANTAR

G-------------/
D-------------/
A--0-----5----/
E----0-2------/



Letra subida por: Anónimo

Discos en los que aparece este acorde: Bienvenidos A Occidente , Iv-Iii-vi

El acorde de A Todos Ellos de Disidencia es una versión de la canción original realizada por colaboradores/usuarios de Coveralia.

¿Has encontrado algún error en esta página? Envíanos tu corrección del acorde