música
Buscador

Acorde de A Dónde Vas? - El Ultimo Ke Zierre

Letra de A Dónde Vas?

Punteo inicial:

d--------6-4--4-6-4---
a-4-6-7-6---7---------  3 veces

d-------4--------------
a-4-6-7--7-6-4-2-4-----

ahora viene el bajo
y suenan en dos partes un pall mute
la primera es un G#
después es A – G#

el riff es A – Em – B – C#

donde dice “adonde vas” (coro) es A – G#

de ahí viene el punteo
todo el rato es lo mismo

solo:

g-------------------------------------------------
d-------4-6-7-6--6-7-6-4-6-4--9-7-6-4-6--7-6-4-6--
a-4-6-7-------------------------------------------

g-------------------
d-9-7-6-4-6-4-------   2 veces
a-------------------

g--------------------
d-7-6-4-2-4—-4-6-7-9-
a--------------------

g-----------          g-------------
d-9-7-6-4-2- 3 veces  d-7-6-4-6-7---
a-----------          a-------------

(las 2 partes de arriba del solo van de corrido y se repiten 2 veces)

g----------------          g---------
d---------------- 2 veces  d--------- 2 veces
a-6-7--6-7-9-----          a-9-7-6---

g-9-8-9-8-11-8-                g-11-9-8-6-11-8
d-------------- 3 veces (P.M:) d--------------  (Pall mute)
a--------------                a--------------


Letra subida por: Anónimo

Discos en los que aparece este acorde: Quemaste Tus Alas De Angel

El acorde de A Dónde Vas? de El Ultimo Ke Zierre es una versión de la canción original realizada por colaboradores/usuarios de Coveralia.

¿Has encontrado algún error en esta página? Envíanos tu corrección del acorde