música
Buscador

Acorde de 9 Teen 90 Nine - Limp Bizkit

Letra de 9 Teen 90 Nine



Intro



A||--0-0-0-0-0-0--0--00--0-0--||



Chorus

"so let's make something out of it..."

D||-----------------------||

A||--0-0-3-2-1-0-0-2-3-5--||



Verse

"Fame your claimin'..."

G||--------------||

D||--8-8----7-7--||

A||--------------||



Fill



https://www.coveralia.com/acordes/9-teen-90-nine-limp-bizkit.php

G||--2-2-2--||

D||--2-2-2--||

A||--0-0-0--||



Riff A

"Bring it on..."

G||--2-2--5/4/3--2-2-xx-7-xx-7--||

D||--2-2--5/4/3--2-2-xx-7-xx-7--||

A||--0-0--3/2/1--0-0-xx-5-xx-5--||



Riff B

"You wanna be down with the G shock,fuck the clamrock..."

G||--2-3--2-4--2-4--2-2--x-x-2-2--||

D||--2-3--2-4--2-3--2-2--x-x-2-2--||

A||--0-1--0-2--0-1--0-0--x-x-0-0--||



Letra subida por: Anónimo

Discos en los que aparece este acorde: Significant Other

El acorde de 9 Teen 90 Nine de Limp Bizkit es una versión de la canción original realizada por colaboradores/usuarios de Coveralia.

¿Has encontrado algún error en esta página? Envíanos tu corrección del acorde