música
Buscador

Acorde de ¡Que Tire La Toalla! - Leño

Letra de ¡Que Tire La Toalla!



.... ESTO ES LA INTRO ....



Esto es un ritmo rapidito fale ?

x9 G C

-- ---------- -------------------

-------------------------------------||--3--3--3--3-----0--0--0--0--0--0--0---|

-------------------------------------||--3--3--3--3-----1--1--1--1--1--1--1---|

---------------------------------1--*||--4--4--4--4-----0--0--0--0--0--0--0---|

------------0-----------2-----------*||--5--5--5--5-----2--2--2--2--2--2--2---|

---2-----------2--2--------2--2------||--5--5--5--5-----3--3--3--3--3--3--3---|

------0--0---------------------------||--3--3--3--3-----0--0--0--0--0--0--0---|



B E

----- ---

---2--2-----0--

---5--5-----0--

---5--5-----1-- AQUI EMPIEZA...

---5--5-----2--

---2--2-----2--

---2--2-----0--



.... Y ESTOS LOS ACORDES ....



E A

Ese señor importante

C Em G-D

que tiene que decidir

E A

es un cargo relevante

C Em G-D

no se puede prescindir

E A

esa imagen convincente

C Em G-D

que sale en televisión

E A B G C G E

madera de presidente hombre serio

E A

manda mas que los que mandan

C Em G-D

es toda una autoridad

https://www.coveralia.com/acordes/-que-tire-la-toalla--leno.php

E A

siempre sabe lo que dice

C Em G-D

siempre se sabe callar

E A

dice no ser millonario

C Em G-D

con gran deportividad



E A

suele vencer al contrario

C G G C C G G Am Am D D

muy formal

G C Cadd9

que tire la toalla

G C Cadd9

que tire la toalla

G C Cadd9

que tire la toalla



(PUNTEILLO CURIOSO)



artesano de promesas

hermetico de pelar



se las da de independiente

no lo puede remediar



tiene arrugas en la frente

de querer ir mas allá



y nunca sabes cuando besa

de verdad



que tire la toalla

que tire la toalla

que tire la toalla

que tire la toalla

que tire la toalla

que tire la toalla.

Letra subida por: Anónimo

El acorde de ¡Que Tire La Toalla! de Leño es una versión de la canción original realizada por colaboradores/usuarios de Coveralia.

¿Has encontrado algún error en esta página? Envíanos tu corrección del acorde