música
Buscador

Acorde de ....Y Al Final - Bunbury

Letra de ....Y Al Final

Intro:  (Se puede tocar ya sea las notas de la primera o segunda cuerda

no es necesario que se toquen juntas.)





E|-12--14--|--14h16------12-14--|--14h16--16------18--18h19------18--16---|

B|-5---7---|--7h-9-------5--7---|--7h-9---9-------11--11h12------11--9----|

G|---------|--------------------|-----------------------------------------|





E|-18h19--16----11--11----11h14--12-|-12--11------11--11------11h14--12---|

B|-11h12--9-----4---4-----4h-7---5--|-5---4-------4---4-------4h7----5----|

G|----------------------------------|-------------------------------------|





E|-11--z--12--14-|-14h16--z--12--14-|-14h16--16------18--18h19------18--16-|

B|-4---z--5---7--|-7h-9---z--5---7--|-7h-9---9-------11--11h12------11--9--|

G|---------------|------------------|--------------------------------------|





E|-14h16--16------18--18h19--18-16-|-18h19--16------11--11------11h14--12--|

B|-7h-9---9-------11--11h12--11-9--|-11h12--9-------4---4-------4h-7---5---|

G|---------------------------------|---------------------------------------|







E|---12--11------11--------------|-------||

B|---5---4-------4------12--11---|--9----||

G|----------------------4---3----|--1----||





|----------------------- x4

e|-------------|---------------------------

B|-------------|-----4---4------4---4------

G|-------------|-----4---4------4---4------

D|---4h6-4-----|-----6---6------6---6------

A|---------6---|-------------6-------------

E|-------------|--4------------------------







Verso 1



G#m C#m G#m

Permite que te invite a la despedida



E B

No importa que no merezca más tu atención

D# G#m

Así se hacen las cosas en mi familia

E D# B G#m

Así me enseñaron a que las hiciera yo.







Verso 2



G#m C#m G#m

Permite que te dedique la última línea

E B

No importa que te disguste esta canción

D# G#m

Así mi conciencia quedará más tranquila

E D# B G#m

Así en esta banda decimos adiós.







Coro

https://www.coveralia.com/acordes/----y-al-final-bunbury.php



E

... Y al final

G#m

Te ataré con todas mis fuerzas

D# G#m

Mis brazos serán cuerdas para bailar este vals.

E

... Y al final

G#m

Quiero verte de nuevo contenta

D# G#m

Sigue dando vueltas si aguantas de pie.







|-------------------- x4

B|-------------||-----4---4------4---4------

G|-------------||-----4---4------4---4------

D|---4h6-4-----||-----6---6------6---6------

A|---------6---||-------------6-------------

E|-------------||--4------------------------







Verso 3



G#m C#m G#m

Permite que te explique que no tengo prisa

E B

No importa que tengas algo mejor que hacer

D# G#m

Así nos podemos pegar toda la vida

E D# B G#m

Así si me dejas no te dejaré de querer.







Coro



E

... Y al final

G#m

Te ataré con todas mis fuerzas

D# G#m

Mis brazos serán cuerdas para bailar este vals.

E

... Y al final

G#m

Quiero verte de nuevo contenta

D# G#m

Sigue dando vueltas si aguantas de pie.







Interludio:



( E - G#m - D# - G#m ) x2



Final:

|-------------------- x8

B|-------------||-----4---4------4---4------||--4----|

G|-------------||-----4---4------4---4------||--4----|

D|---4h6-4-----||-----6---6------6---6------||--6----|

A|---------6---||-------------6-------------||--6----|

E|-------------||--4------------------------||-------|

Discos en los que aparece este acorde: Flamingos

El acorde de ....Y Al Final de Bunbury es una versión de la canción original realizada por colaboradores/usuarios de Coveralia.

¿Has encontrado algún error en esta página? Envíanos tu corrección del acorde