música
Buscador

Acorde de You Took The Words Right Out Of My Mouth - Meat Loaf

Letra de You Took The Words Right Out Of My Mouth

     A        E      D                     E 

E |-9-7-5-5--4----|-----|---------------|-----|

B |-------------7-|-7---|-7-5-----------|-----|

G |---------------|-----|-------7-7-6-4-|-4---|

D |---------------|-----|---------------|-----|

A |---------------|-----|---------------|-----|

E |---------------|-----|---------------|-----|



A E D E (A)

E |-21-19-17-17--16----|-----|---------------------|--------||------|

B |-----------------19-|-19--|-19-17-15-15---14----|--------||------|

G |--------------------|-----|------------------16-|-16--16-||-14---|

D |--------------------|-----|---------------------|--------||------|

A |--------------------|-----|---------------------|--------||------|

E |--------------------|-----|---------------------|--------||------|





E A E D

It was a hot summer night and the beach was burning

E A E

There was fog crawling over the sand

E A E D

When I listen to your heart I hear the whole world turning

G5 B5 C#5 D5 E5 A5

I see the falling stars falling through your tremblin' hands



D5

You were licking your lips and your lipstick shinin'

A5 D5

I was dyin' just to ask for a taste

A5 D5

We were lyin' together in a silver lining

G5

By the light of the moon

http://www.coveralia.com/acordes/you-took-the-words-right-out-of-my-mouth-meat-loaf.php

B5 C#5 D5 E5

You know there's not another moment

B5 C#5 D5 E5 B5 C#5 D5 E5 A5

Not another moment, not another moment to waste



Bm F#m G A

Well you hold me so close that my knees grow weak

Bm D A

But my soul is flying high above the ground

Bm F#m G A

I'm trying to speak, but no matter what I do

F#m E

I just can't seem to make any sound



D A

And then you took the words right out of my mouth

G A

Oh, it must have been while you were kissing me

D A

You took the words right out of my mouth

B5 C#5 D5

Oh, and I swear it's true

E5 F#5 G#5 A5 C#5 D5 F#5 E5

I was just about to say I love you (Love you)





Now my body is shaking like a wave on the water

And I guess that I'm beginning to grin

We're fin'ly alone and we can do what we want

The night is young, ain't no-one gonna know where you

No-one gonna know where you

No-one gonna know where you been

Letra subida por: Anónimo

El acorde de You Took The Words Right Out Of My Mouth de Meat Loaf es una versión de la canción original realizada por colaboradores/usuarios de Coveralia.

¿Has encontrado algún error en esta página? Envíanos tu corrección del acorde