música
Buscador

Acorde de Yo Quiero Morirme Aca - Los Fabulosos Cadillacs

Letra de Yo Quiero Morirme Aca



Intro:



C F C G



El piano:

e---8----7----5---/3---5---3-1---3--/---8----7----5--/--3-----5-------I

B---------------------------------------------------------------------I

G---------------------------------------------------------------------I

D---------------------------------------------------------------------I

A---------------------------------------------------------------------I

E---------------------------------------------------------------------I





C F C G

La ra la la la laa ra la laaaaa



C F

Que yo que yo que yo quiero morirme

C G

que yo que yo que yo quiero morirme acá

C F

Que yo que yo que yo quiero morirme

C G

que yo que yo que yo quiero morirme acá



C

Yo tengo a mi mamá,

F

si yo tengo a mi papá,

C G

pero quiero morir tocando ska.



intermedio

Gutarra 1

http://www.coveralia.com/acordes/yo-quiero-morirme-aca-los-fabulosos-cadillacs.php

e------------------------------------------------------------------I

B------------------------------------------------------------------I

G------------------------------------------------------------------I

D-------------5-5------------------5-5------------3--------------5-I

A-7----7-7-----------5-----5-5------------3--3-3----3---5-5--------I

E------------------------------------------------------------------I



Guitarra 2



e--------------------------------------------------------------I

B----------8-8--------------8-8------------6-------------------I

G--9----99----------7--7-7---------5-5-5-----5--------7-7------I

D--------------------------------------------------------------I

A--------------------------------------------------------------I

E--------------------------------------------------------------I

Solo de sax



e----------------------------------88--------8------8-10-8-10-8-I

B-10-10--------------------------------10-----10----------------I

G-----------9-9---5-5-------------------------------------------I

D------------------------7-7------------------------------------I

A---------------------------------------------------------------I

E---------------------------------------------------------------I



e-88--------8------8-------88--------8------8-----8------8----8-I

B------10-------10---------------10-----------------------------I

G---------------------------------------------------------------I

D---------------------------------------------------------------I

A---------------------------------------------------------------I

E---------------------------------------------------------------I





Ska ska ska

Letra subida por: Anónimo

El acorde de Yo Quiero Morirme Aca de Los Fabulosos Cadillacs es una versión de la canción original realizada por colaboradores/usuarios de Coveralia.

¿Has encontrado algún error en esta página? Envíanos tu corrección del acorde