música
Buscador

Acorde de Y En Tu Ventana - Andy & Lucas

Letra de Y En Tu Ventana

Tono: F







{---Intro---}







e|-----0-1-3-5---3--5---2--3---1-3/4/3---0--1--1--3------------|

B|---3---------------------------------------------------------|

G|-------------------------------------------------------------|

D|-------------------------------------------------------------|

A|-------------------------------------------------------------|

E|-------------------------------------------------------------|







e|-----0-1-3-5---3-5---2-3---1-3/4/3---0--1--0-----------------|

B|---3-----------------------------------------3-1-------------|

G|-------------------------------------------------------------|

D|-------------------------------------------------------------|

A|-------------------------------------------------------------|

E|-------------------------------------------------------------|





{/--Intro--}



---->A partir de aquí es de la siguiente manera

con algún cambio en las notas finales de las estrofas< ----





Dm C Bb C

e|--------1--------0-----------1-----------0-------------------|

B|----------------------------3--------2-----------------------|

G|------2--------0-----------3-------0---0---------------------|

D|-------------------------------------------------------------|

A|--0---------3-----------1------------------------------------|

E|-------------------------------------------------------------|





Dm C

Y es que ella no sabe lo que es el amor

Bb C

solo sabe de golpes y desolación

Dm C

en su cara refleja la pena y el dolor

Bb C

y es que ella, ella...

Dm C

http://www.coveralia.com/acordes/y-en-tu-ventana-andy-y-lucas.php

no conoce que el hombre que un día la enamoró

Bb C

duele más el sufrimiento que cualquier moratón

Dm C

se refugia en su alma de cualquier chaparrón

Bb A

y es que ella, ella...





---->Estribillo< ---- (de aquí al al final con ritmo de rumba)





Dm Bb

Y en tu cocina,tan prisionera de tu casa en la cocina

Gm7

donde los días pasarán como rutinas

C

donde su siesta es la paz de tu armonía

Dm Bb

y en tu ventana,gritas al cielo pero lo dices callada

Gm7

no vaya a ser que se despierte el que maltrata

C

cada sentido y cada gesto de tu alma

Bb Dm

Lo que daría yo,por cambiar su temor

C Bb

por una estrella donde sin golpes viviera ella sola

Bb Dm C

lo que daría yo,por parar su reloj en madrugada

Bb

pa' que durmiera tranquila y sola





---->/Estribillo< ----





Bb

De verse sola perdía en el infierno

C

con lo calentito que se está en el invierno

Gm7

pero prefiere mil veces su sueño

A

antes de verse sola en sus adentros



(Estribillo)

Discos en los que aparece este acorde: Andy & Lucas , Edicion Especial , En Su Salsa , , Mas De 10 , Esencial

El acorde de Y En Tu Ventana de Andy & Lucas es una versión de la canción original realizada por colaboradores/usuarios de Coveralia.

¿Has encontrado algún error en esta página? Envíanos tu corrección del acorde