música
Buscador

Acorde de Words Of Love - The Beatles

Letra de Words Of Love

Words of love



Intro:



A D E

E|-5-------5-------0-------0-------|-----2-----------0-----------0--

B|-5-------5-------2/5-----5---2---|---------3-----------2---0------

G|---------------------------------|-2-----------2------------------

D|---------------------------------|--------------------------------

A|---------------------------------|--------------------------------

E|---------------------------------|--------------------------------

^ ^ ^ ^ ^ ^ ^ ^



Repeat this figure two more times, then play this:



A D E

E|-5-------5-----5-0---0-----------|-----2-----------0--------------

B|-5-------5-----5-5---5-------0---|---------3-----------2---4------

G|---------------------------------|-2-----------2---------------1--

D|---------------------------------|--------------------------------

A|---------------------------------|--------------------------------

E|---------------------------------|--------------------------------

^ ^ ^ ^ ^ ^ ^ ^





Verse 1:



A D E

Hold me close and tell me how you

A D E

feel Tell me love is

A D E

real um um

A D E

um um





Verse 2:



A D E

Words of love you whisper soft and

A D E

true Darling I love you

A D E

real um um





Solo:



A D E

um um

E|---------------------------------|-----------------4-------7------

B|---------------------------------|-----------------5-------9------

G|---------------------------------|--------------------------------

D|---------------------------------|--------------------------------

A|---------------------------------|--------------------------------

E|---------------------------------|--------------------------------

^ ^ ^ ^ ^ ^ ^ ^

A D E

E|-9-------5-------0-------5-------|-2/5---------5---4/7-----7/9----

B|-10------5-------2-------5-------|-3/7---------7---5/9-----9/10---

G|---------------------------------|--------------------------------

D|---------------------------------|--------------------------------

A|---------------------------------|--------------------------------

E|---------------------------------|--------------------------------

^ ^ ^ ^ ^ ^ ^ ^

A D E

E|-9-------5-------0-------5-------|-2/5---------5---4/7-----7/9----

B|-10------5-------2-------5-------|-3/7---------7---5/9-----9/10---

G|---------------------------------|--------------------------------

D|---------------------------------|--------------------------------

A|---------------------------------|--------------------------------

E|---------------------------------|--------------------------------

^ ^ ^ ^ ^ ^ ^ ^

A D E

E|-9-------5-------0-------5-------|-2/5---------5---4/7-----7------

B|-10------5-------2-------5-------|-3/7---------7---5/9-----9------

G|---------------------------------|--------------------------------

D|---------------------------------|--------------------------------

A|---------------------------------|--------------------------------

E|---------------------------------|--------------------------------

^ ^ ^ ^ ^ ^ ^ ^

A D E

E|-5-------5-------0-------0-------|-----2-----------0-----------0--

B|-5-------5-------2/5-----5---2---|---------3-----------2---0------

G|---------------------------------|-2-----------2------------------

D|---------------------------------|--------------------------------

A|---------------------------------|--------------------------------

E|---------------------------------|--------------------------------

http://www.coveralia.com/acordes/words-of-love-the-beatles.php

^ ^ ^ ^ ^ ^ ^ ^

A D E

E|---------------------------------|-----2-------2---0--------------

B|-2-------2-------2-------2-----2-|-----3-------3-------2---0---0--

G|-2-------2-------2-------2-----2-|-2------------------------------

D|-2-------2-------2-------2-----2-|--------------------------------

A|---------------------------------|--------------------------------

E|---------------------------------|--------------------------------

^ ^ ^ ^ ^ ^ ^ ^

A D E

E|---------------------------------|-----2-------2---0--------------

B|-2-------2-------2-------2-----2-|-----3-------3-------2---0---0--

G|-2-------2-------2-------2-----2-|-2------------------------------

D|-2-------2-------2-------2-----2-|--------------------------------

A|---------------------------------|--------------------------------

E|---------------------------------|--------------------------------

^ ^ ^ ^ ^ ^ ^ ^

A D E

E|---------------------------------|-----2-------2---0--------------

B|-2-------2-------2-------2-----2-|-----3-------3-------2---0---0--

G|-2-------2-------2-------2-----2-|-2------------------------------

D|-2-------2-------2-------2-----2-|--------------------------------

A|---------------------------------|--------------------------------

E|---------------------------------|--------------------------------

^ ^ ^ ^ ^ ^ ^ ^

A D E

E|-5-------5-------0-------0-------|-----2-----------0-----------0--

B|-5-------5-------2/5-----5---2---|---------3-----------2---0------

G|---------------------------------|-2-----------2------------------

D|---------------------------------|--------------------------------

A|---------------------------------|--------------------------------

E|---------------------------------|--------------------------------

^ ^ ^ ^ ^ ^ ^ ^



Verse 3:



A D E

Let me hear you say the words I long to

A D E

hear Darling when you're

A D E

near um um

A D E

um um





Verse 4:



A D E

Words of love you whisper soft and

A D E

true Darling I love you

A D E

real um um

A D E

um um





Coda:



A D E

um um

E|---------------------------------|-----2-------2---0-----------0--

B|-2-------2-------2-------2-------|-----3-------3-------2---0------

G|-2-------2-------2-------2-------|-2------------------------------

D|-2-------2-------2-------2-------|--------------------------------

A|---------------------------------|--------------------------------

E|---------------------------------|--------------------------------

^ ^ ^ ^ ^ ^ ^ ^

A D E

um Ah

E|-5-------5-------0---0---0-----0-|-----2-----------0-----------0--

B|-5-------5-------2---5---5-------|---------3-----------2---0------

G|---------------------------------|-2-----------2------------------

D|---------------------------------|--------------------------------

A|---------------------------------|--------------------------------

E|---------------------------------|--------------------------------

^ ^ ^ ^ ^ ^ ^ ^

A D E

Ah Ah

E|-5-------5-------0---0---0-----0-|-----2-----------0-----------0--

B|-5-------5-------2---5---5-------|---------3-----------2---0------

G|---------------------------------|-2-----------2------------------

D|---------------------------------|--------------------------------

A|---------------------------------|--------------------------------

E|---------------------------------|--------------------------------

^ ^ ^ ^ ^ ^ ^ ^

El acorde de Words Of Love de The Beatles es una versión de la canción original realizada por colaboradores/usuarios de Coveralia.

¿Has encontrado algún error en esta página? Envíanos tu corrección del acorde