música
Buscador

Acorde de Wild Saxophone - Stray Cats

Letra de Wild Saxophone



F#m-Gm - Eb7 - D7



("rock rock rock")

G7 - C7 - D7



F#m/Gm

I wanna mambo, jambo, do my number

Hold my baby all the summer

Eb7 D7 F#m/Gm

Every time I hear that wild saxophone



F#m/Gm

I wanna bip it, bop it, really rock it,

Oooooh, Davy Crockett

Eb7 D7 F#m/Gm

Every time I hear that wild saxophone



G7

I wanna rock rock rock

C7

roll roll roll

D7

bop bop bop



F#m/Gm

I wanna rip it, rock it, really bop it,

Oooooh, Davy Crockett

Eb7 D7 F#m/Gm

Every time I hear that wild saxophone



[sax solo]



G7

I wanna rock rock rock

C7

roll roll roll

D7

bop man bop



[guitar solo]

p.m.....................

|-----------------------|-------------------|

|-----------------------|--1/2/3/2~-1-3-----|

|-----------------------|---------------3-0~|improv.

|----------5------------|-------------------|

http://www.coveralia.com/acordes/wild-saxophone-stray-cats.php

|------5-------55-4-3---|-------------------|

|--333---3---3--------6-|-------------------|



|--8/9/10/9~-8~--------|

|--------------11~-8~--|

|----------------------|improv.

|----------------------|

|----------------------|

|----------------------|



|-----------------------------------3~--|

|----11~---10~---8~----11~--11-10~--3~--|

|----------------------10~--10--9~--3~--|

|--8------7-----5-------8~---8--7~------|

|---------------------------------------|

|---------------------------------------|



F#m/Gm

I wanna rip it, rock it, really bop it,

Yeah, Davy Crockett

Eb7 D7 F#m/Gm

Every time I hear that wild saxophone



F#m/Gm

I wanna mambo, jambo, do my number

Hold my baby all the summer

Eb7 D7 F#m/Gm

Every time I hear that wild saxophone



G7

I wanna rock rock rock

C7

roll roll roll

D7

bop man bop



F#m/Gm

I wanna flip it, flop it, really bop it,

Aaaaah, Davy Crockett

Eb7 D7 F#m/Gm

Every time I hear that wild saxophone

Every time I hear that wild saxophone

Every time I hear that wild saxophone

Every time I hear that wild saxophone



Letra subida por: Anónimo

Discos en los que aparece este acorde: Stray Cats

El acorde de Wild Saxophone de Stray Cats es una versión de la canción original realizada por colaboradores/usuarios de Coveralia.

¿Has encontrado algún error en esta página? Envíanos tu corrección del acorde