música
Buscador

Acorde de What If - Ashley Tisdale

Letra de What If

(intro)



Em D C G D/F#

E |----------15--14-|----------12--10-|--------10--8--7-|---------|-5-------|

B |-------12---------|-------10----------|------8------------|-----8- -|-----7---|

G |----12------------|----11-------------|----9--------------|---7---7|--7---7-|

D |-14---------------|-12----------------|-10---------------|-5-------|-4-------|

A |--------------------|--------------------|--------------------|----------|---------|

E |--------------------|--------------------|--------------------|----------|---------|



Em D C D

E |----------15--14-|----------12--10-|--------10--8--7-|-------3--2-----|

B |-------12----------|-------10---------|------8------------|-----3------3---|

G |----12-------------|----11------------|----9--------------|---2----------2-|

D |-14----------------|-12---------------|-10----------------|-0--------------|

A |---------------------|-------------------|---------------------|-----------------|

E |---------------------|-------------------|---------------------|-----------------|



(verso 1)

Em

Don't speak

I can't believe

Bm

this is here happening

C G D/F#

Our situation isn't right

Em

Get real who your playing

Bm

with I never thought

he'd be like this

C

You were supposed

D

to be there by my side



(ponte)

Bm C

When you say that you want me

Em D

I just don't believe it

Bm C

Your always ready to give up

Em D

and never turn around



(coro)

G D

But what if I need you baby

Am C

Would you even try to save me

Em D

Or would you find some lame

C

excuse to never be true

G D

What if I said I love you

Am C

Would you be the one to run to

Em

Or would you watch

D

me walk away

C

without a fight



(verso 2)

Em

So sick of worrying that ya

http://www.coveralia.com/acordes/what-if-ashley-tisdale.php

Bm

gonna quit over anything

C

I could trip and you

G D/F#

would let go like that

Em

And everything that we ever were

Bm

Seems to fade but not the hurt

C

Cause you don't know the

D

good things from the bad



(ponte)

Bm C

When I say that I want you

Em D

You know that I mean it

Bm C

And in my hour of weakness

Em D

There's still time to try



(coro)



(estribilho)

D

Every time I speak

C

you try and stop me

D

Cause every little

C

thing is wrong

Am

You say your noticing

but you never see

G/B

this is who I really am

that you can't leave

C

Makes me wanna know right now

If it's me you'll leave without

D

Or would you change your mind

Em Bm C D

But what if I need you



(coro)



(outro)

Baby what if

G D

I need you



Yeah yeah

Am C

What if I need you

what if I you

Em D C

Ooh ooh if I need you

G D

What if I need you

Am C Em D C

Need you you you

El acorde de What If de Ashley Tisdale es una versión de la canción original realizada por colaboradores/usuarios de Coveralia.

¿Has encontrado algún error en esta página? Envíanos tu corrección del acorde