música
Buscador

Acorde de What I Heard - Blondie

Letra de What I Heard

 Intro 



e|---------------------------------------------------------|

B|---------------------------------------------------------|

G|---------------------------------------------------------|

D|------------------10-7------------------7-5--------------|

A|-5--7--8--5--7--8------5--7--8--5--7--8-----5--7--8------|

E|---------------------------------------------------------|



e|---------------------------------------------------------|

B|---------------------------------------------------------|

G|---------------------------------------------------------|

D|---------7-5-----------12-10-8-7-------------------------|

A|-5--7--8-----5--7--8-5-----------------------------------|

E|---------------------------------------------------------|





Verse:



Bb F C

Same old song and dance, why do I give you another chance?

Dm Bb

Drama every night, I don't wanna fight

F C

Same old story again and if you wanna be my friend

Dm

It's really gotta end, same old story







Bb F C

You told me you were done with her and I believe every word

Dm

and now I wonder what I heard (ooh)

Bb F C

You told me you were done with her and I believe every word

Dm

and now I wonder what I heard (ooh)







Verse:



Bb F C

The drama won't stop, you said you'd call the cops

http://www.coveralia.com/acordes/what-i-heard-blondie.php

Dm Bb

Police don't care 'cause it's crazy and you keep calling me

F C

I've heard it all before, it's a total bore

Dm

The cat got out and he came running back for more







Bb F C

You told me you were done with her and I believe every word

Dm

and now I wonder what I heard (ooh)

Bb F C

You told me you were done with her and I believe every word

Dm

and now I wonder what I heard (ooh)





Bb F C Dm





Verse:



Bb F C

I told you I'd be cool, now I feel like a fool

Dm Bb

I got sucked into it it's crazy, but it won't phase me

F C

It's a total bore, I heard it all before

Dm

The cat got out and he came running back for more







Bb F C

You told me you were done with her and I believe every word

Dm

and now I wonder what I heard (ooh)

Bb F C

You told me you were done with her and I believe every word

Dm

and now I wonder what I heard (ooh) (2x)

Letra subida por: Anónimo

Discos en los que aparece este acorde: Panic Of Girls , What I Heard (Cd Single)

El acorde de What I Heard de Blondie es una versión de la canción original realizada por colaboradores/usuarios de Coveralia.

¿Has encontrado algún error en esta página? Envíanos tu corrección del acorde