música
Buscador

Acorde de Wear Me Down - Blur

Letra de Wear Me Down

(Intro) 



e -----------------------|

B -----------------------|

G --------------p--------|

D ------1------3-1-3^-1--|

A --3-3------3-----------|

E -----------------------|



(Verse)



e -----------------------------|

B -----------------------------|

G --5-5---p-h--------5-555555--|

D --6-6--7-5-7--5-7--3-555555--|

A --6-6--------------3-333333--|

E --4-4------------------------|



G# Bb C

Every time I come here



G# Bb C

I'm not sure what to say



G# Bb C

I know it should be easy



G# Bb C

But it never seems that way



G# Bb C

You, you make me feel



G# Bb C

Like no one ever will



G# Bb C

So why, why do you bore me



G# Bb C

Until my heart is still



Eb Bb Dm

You, you wear me down, my defenses are gone now



C

And I can't fight



G# Bb C

I can't say I love you easily



G# Bb C

http://www.coveralia.com/acordes/wear-me-down-blur.php

But you wouldn't want me to



G# Bb C

So I'd rather just say nothing



G# Bb C

And leave it up to you



G# Bb C

Then it's easy to forget



G# Bb C

You're just as small as me



G# Bb C

Then it's easy to forget



G# Bb C

You're just as foolish as me



(middle)



e -------------------------------------------------------------------------|

B ----------------p--------p--------------------------p--------p-----------|

G --11^-11^-10--10-8-----10-8--------11^-11^-10--10-8-----10-8----11^-13^--|

D -------------------10-------10--10-------------------10-------10---------|

A -------------------------------------------------------------------------|

E -------------------------------------------------------------------------|



e ---------------------------------------------------------|

B ----------------p--------p--------------------11^-13^----|

G --11^-11^-10--10-8-----10-8--------11^-11^----------11^--|

D -------------------10-------10--10-----------------------|

A ---------------------------------------------------------|

E ---------------------------------------------------------|



(outro)



e ----------------------------------------------------------------|

B -------------------------------------------------------11^-13^--|

G --11^(x14)--11^11^11^11^11^11^11^11^11^11^11^11^11^11^----------|

D ----------------------------------------------------------------|

A ----------------------------------------------------------------|

E ----------------------------------------------------------------|



e --------------------------------------------------------|

B -------------------------------------------11^-13^------|

G --11^(x10)--11^11^11^11^11^11^11^11^11^11^---------11^--|

D --------------------------------------------------------|

A --------------------------------------------------------|

E --------------------------------------------------------|

Letra subida por: Anónimo

Discos en los que aparece este acorde: Leisure

El acorde de Wear Me Down de Blur es una versión de la canción original realizada por colaboradores/usuarios de Coveralia.

¿Has encontrado algún error en esta página? Envíanos tu corrección del acorde