música
Buscador

Acorde de We All Know - Devendra Banhart

Letra de We All Know



Intro: G Em (x4)

G Em

We all know

G Em

That the wind blows

G Em

And the moon glows

G Em

And our lungs grow

C

We belong to the floating hand

A7...

that's made by some animals,

G Em

And we all dance so

G Em

We can let go

G Em

And remove clothes

G Em

And trade lobes

C

Like the type of tongue that roots from your breast

A7...

and it shakes your pretty little clavicle,

G Em

A good friend

G Em

Is walking

G Em

To a homeland

G Em

An inside land,



And to him you can say

C

Leave your eyes at the horizon's dead door cause you

A7...

won't need them anymore,

G Em

The children

G Em

Da da da di dum spend the dawning

G Em

Da da da di dum and the morning

G Em

Da da da di ra disappearing



Hm mm mm mm mm mm mm mm mm m

C

They reappeared as the seed of love

http://www.coveralia.com/acordes/we-all-know-devendra-banhart.php

A7 G Em

you know the earth births the vegetables,

G Em

We all know (x4)



Outro: (Enter horn section)

G Em

Da dum da dum da da da... etc



Chords:



G Em

d d u u h p d d u u d u

e ---3--3-3--3-------0--0-0--0-0-0--------|

B ---3--3-3--3-------0--0-0--0-0-0--------|

G ---0--0-0--0-------0--0-0--0-0-0--------|

D ---0--0-0--0-0-2-0-2--2-2--2-2-2--------|

A ---2--2-2----------2--2-2----2-2--------|

E ---3--3-3----------0--0-0----0-0--------|



G Em

d d u u h p d d u u h p

e ---3--3-3--3-------0--0-0--0------------|

B ---3--3-3--3-------0--0-0--0------------|

G ---0--0-0--0-------0--0-0--0------------|

D ---0--0-0--0-0-2-0-2--2-2--2-0-2-0------|

A ---2--2-2----------2--2-2---------------|

E ---3--3-3----------0--0-0---------------|



The song mainly consists of the top progression

but at various times frequents the lower.



C A7

d ux d ux d ux d ux d ux d ux d ux d ux d...(let ring)

e -------------------------------------------------------|

B --(1)--(1)--(1)--(1)--(1)--(1)--(1)--(1)---2-----------|

G --(0)--(0)--(0)--(0)--(0)--(0)--(0)--(0)---0-----------|

D ---2----2----2----2----2----2----2----2----2-----------|

A ---3----3----3----3----3----3----3----3----0-----------|

E -------------------------------------------------------|



Attempted made as far as possible to correspond the chord

changes w/lyrics.

Fingerpicked/strummed (of course)

d= down strum

u= up stum

ux= up muffle (get the down up motion going but just slightly

release pressure on the upward movement to create the small muffle)





Letra subida por: Anónimo

Discos en los que aparece este acorde: Niño Rojo

El acorde de We All Know de Devendra Banhart es una versión de la canción original realizada por colaboradores/usuarios de Coveralia.

¿Has encontrado algún error en esta página? Envíanos tu corrección del acorde