música
Buscador

Acorde de Warriors Of Time - Black Tide

Letra de Warriors Of Time

Intro 



E----------------------------------------------------------------------------|

B-----------------------------------------8-6-5-6-5--------------------------|

G-----10-9-7-9-------------------------------------5-0---10-9-7-9------------|

D----7----------10-8-7-8-7------5-3-2-3-5---------------7-----------10-8-7-8-|

A---5----------8----------8----3-------3--------------55-----------8---------|

D-------------8------------10-3----------------------------------88----------|



E-------------------------------|

B------------------8-6-5-6-5----|

G---------------------------5-0-|

D--------5-3-2-3-3--------------| (x3)

A--8----3-------3---------------|

D---10-3------------------------|



Verse

E---------------------------------|

B---------------------------------|

G---------------------------------|

D-------2-------2-------2-4-4-2-4-|

A-------2-2-2-2-2-------2-4-4-2-4-|

E-3-3-3-0-------0-0-0-0-0-2-2-0-2-|



Bridge

E-------------------------------------|

B-------------------------------------|

G-------------------------------------|

D-2-2-2-----------------4-4-4-4-0-0-0-|

A-0-0-0-----------------4-4-4-4-0-0-0-|

E-------3-3-3-3-0-0-0-0-2-2-2-2-0-0-0-|

http://www.coveralia.com/acordes/warriors-of-time-black-tide.php



Chorus

E-------------------------|

B-------------------------|

G-------------------------|

D-2-2--2-2--4-4--2-2-2-2--|

A-2-2--2-2--4-4--2-2-2-2--|

E-0-0--0-0--2-2--0-0-0-0--|



Solo

E-------12------12------14----------15--------------16-|

B-----10--12----------12--------------13----------16---|

G----8-----14-------14------12----13------14----12--16-|

D---6-------16----12-----------14-------15-----13---16-|

A--4---------12-12-------12--15--------------12-----16-|

E-2-----------10--------12-14---------------12------16-|



E-----14-------13--------12---13------------16---------|

B---12--15--12---12--------13----12-13--15------13-----|

G-13------16------15--15----------14---------14----12--|

D-----14--------12--12---------15---------14---13--15--|

A-------------12--------13--14--------12----12--15--14-|

E-----------13------------16-------12---15-----13--12--|



E-14h16h14h16h14h16h16h14h16----------17-17-17-18-18-19-|

B-----------------------------------16------------------|

G---------------------------------15--------------------|

D-------------------------------14----------------------|

A-----------------------------13------------------------|

E---------------------------12--------------------------|

Letra subida por: Anónimo

Discos en los que aparece este acorde: Light From Above

El acorde de Warriors Of Time de Black Tide es una versión de la canción original realizada por colaboradores/usuarios de Coveralia.

¿Has encontrado algún error en esta página? Envíanos tu corrección del acorde