música
Buscador

Acorde de Walk, Don't Run - The Ventures

Letra de Walk, Don't Run

Tono: C





INTRO:A A G G F F E E A A G G F F E E chords



e|------------------------------------------------------

B|---------------1-0------------------------------------

G|-2----------0-2---2----------0-2-0--------------------

D|-------0-2-3------------0-2-3------3-2-2-0-2-0-2-3-2-0

A|--0-2-3------------0-2-3------------------------------

E|------------------------------------------------------



e|-------------

B|-------------

G|-------------

D|--0-0-2222222

A|-3-3-3-------

E|-------------



e|------------------------------------------------------

B|---------------1-0------------------------------------

G|-2----------0-2---2----------0-2-0--------------------

D|-------0-2-3------------0-2-3------3-2-2-0-2-0-2-3-2-0

A|--0-2-3------------0-2-3------------------------------

E|------------------------------------------------------

http://www.coveralia.com/acordes/walk--don-t-run-the-ventures.php



e|-----------------

B|----------------- PLAY C CHORD 8 TIMES PLAY Am 8 TIMES

G|-----------------

D|--0-0-------0-2-3

A|-3-3-3-0-2-3-----

E|------3----------



e|----------------------

B|-------0--0---1-------

G|-2--2---1--1--2-------

D|--3--3---2--2-2-2-0---

A|---3--3------------3-2

E|----------------------



e|-----------------------------------------------------

B|---------------1-0------------1-0--------------------

G|-2----------0-2---2-----------2-0-2------------------

D|-------0-2-3------------0-2-3-----3-2-2-0-2-0-2-3-2-0

A|--0-2-3------------0-2-3-----------------------------

E|-----------------------------------------------------



ENDING: PLAY

El acorde de Walk, Don't Run de The Ventures es una versión de la canción original realizada por colaboradores/usuarios de Coveralia.

¿Has encontrado algún error en esta página? Envíanos tu corrección del acorde