música
Buscador

Acorde de Waking The Demon - Bullet For My Valentine

Letra de Waking The Demon



Key: G



Tuning: Standard EADGBe



Chords used:

Em - 022000

C - x32010

G - 320033

D - xx0232

F - 133211

Bm - x24432





Intro:



Matt: x means palm mute

Em Em

G

e|---------------------------------|-------------------------|---|---|

B|---------------------------------|-------------------------|---|---|

G|---------------------------------|-------------------------|---|---|

D|-2-------------------------------|-2-----------------------|-3-|-5-|

A|-2-------3-2-----5-2-------------|-2-------3-2-----5-2-----|-3-|-5-|

E|-0-0-0-0-----0-0-----0-0-1-0-3-0-|-0-0-0-0-----0-0-----0-0-|-1-|-3-|

x x x x x x x x x x x x x x



Em Em

e|---------------------------------|--------------------|

B|---------------------------------|--------------------|

G|---------------------------------|--------------------|

D|-2-------------------------------|-2----------------2-|

A|-2-------3-2-----5-2-------------|-2-------3-2------2-|

E|-0-0-0-0-----0-0-----0-0-1-0-3-0-|-0-0-0-0-----0-0--0-|

x x x x x x x x x x x x



Em

e|-------------|

B|-------------|

G|-------------|

D|-2-----------|

A|-2-sustained-

E|-0-----------



Matt: x4

Em Em

G

e|---------------------------------|-------------------------|---|---|

B|---------------------------------|-------------------------|---|---|

G|---------------------------------|-------------------------|---|---|

D|-2-------------------------------|-2-----------------------|-3-|-5-|

A|-2-------3-2-----5-2-------------|-2-------3-2-----5-2-----|-3-|-5-|

E|-0-0-0-0-----0-0-----0-0-1-0-3-0-|-0-0-0-0-----0-0-----0-0-|-1-|-3-|

x x x x x x x x x x x x x x



Em Em

e|---------------------------------|--------------------|

B|---------------------------------|--------------------|

G|---------------------------------|--------------------|

D|-2-------------------------------|-2----------------2-|

A|-2-------3-2-----5-2-------------|-2-------3-2------2-|

E|-0-0-0-0-----0-0-----0-0-1-0-3-0-|-0-0-0-0-----0-0--0-|

x x x x x x x x x x x x



C D

e|---|-----------------|

B|---|-----------------|

G|-5-|-----------------|

D|-5-|-5p0h2p0---------|

A|-3-|---------3p2h3p2-|

E|---|-----------------|

x2





Michael: x means palm mute x5

Em Em

G

e|---------------------------------|-------------------------|---|---|

B|---------------------------------|-------------------------|---|---|

G|---------------------------------|-------------------------|---|---|

D|-2-------------------------------|-2-----------------------|-3-|-5-|

A|-2-------3-2-----5-2-------------|-2-------3-2-----5-2-----|-3-|-5-|

E|-0-0-0-0-----0-0-----0-0-1-0-3-0-|-0-0-0-0-----0-0-----0-0-|-1-|-3-|

x x x x x x x x x x x x x x



Em Em

e|---------------------------------|---------------------------------|

B|---------------------------------|---------------------------------|

G|---------------------------------|---------------------------------|

D|-2-------------------------------|-2---------------5p0h2p0---------|

A|-2-------3-2-----5-2-------------|-2-------3-2-------------3p2h3p2-|

E|-0-0-0-0-----0-0-----0-0-1-0-3-0-|-0-0-0-0-----0-0-----------------|

x x x x x x x x x x x x



C D

e|---|-----------------|

B|---|-----------------|

G|-5-|-2p0h2p0---------|

D|-5-|---------4p0h2p0-|

A|-3-|-----------------|

E|---|-----------------|

will only play at matt's 2nd turn





Verse 1:



Growl:

Em

Helpless my eyes are bleeding

F G Em

from the fear that's inside

You sealed your demise when

you took what was mine

F

Dont try and stop me from

http://www.coveralia.com/acordes/waking-the-demon-bullet-for-my-valentine.php

G Em

avenging this world

No voice to be heard





Chorus:



Sing:

Em

Waking the Demon

C D Em C D

Where'd ya run to

Em

Walking in shadows

C D Em C D

Watch the blood flow



Sing:

C

Theres not much longer

Bm

so dont try and fight

Em

Your bodies weakening

D

so walk to the light

C

All those painfull times

Bm

so alone so ashamed



Growl:

Em

I'm not coming back

there's nothing to gain





Verse 2:



Growl:

Em

Caution there's just no limits

F G Em

to the boundaries you push

I've warned you but still

you just fuck with my mind

F

There's no escape from

G Em

this rage that i feel

Nothing is real





(Repeat Chorus)





Bridge:



Sing:

C D

Breath for me

Em

Don't wake me

from this slumber

C D

Stay with me

Em

Possession taking over

(Repeat)





Michael: While doing Bridge

C D Em

e|-2---3---|-2---3-0-|-2---3---5---3---2---3---|

B|---3---3-|---3-----|---3---3---3---3---3---3-|

G|---------|---------|-------------------------|

D|---------|---------|-------------------------|

A|---------|---------|-------------------------|

E|---------|---------|-------------------------|



C D Em

e|-2---3---|-2---3-0-|-2---3---5---3---2---10pinch-harmonic-|

B|---3---3-|---3-----|---3---3---3---3---3------------------|

G|---------|---------|--------------------------------------|

D|---------|---------|--------------------------------------|

A|---------|---------|--------------------------------------|

E|---------|---------|--------------------------------------|



C D Em

e|-2---3---|-2---3-0-|-2---3---5---3---2---3---|

B|---3---3-|---3-----|---3---3---3---3---3---3-|

G|---------|---------|-------------------------|

D|---------|---------|-------------------------| x2

A|---------|---------|-------------------------|

E|---------|---------|-------------------------|





Interlude: Em--F-Em x3, Em--F-Em-F-Em x5





Guitar solo: Em-- x8 C-Bm-Em-D-C-Bm-Em--





(Repeat Bridge)





(Repeat first 2 parts of intro)





Outro:

Em

Waking the Demon





Letra subida por: Anónimo

El acorde de Waking The Demon de Bullet For My Valentine es una versión de la canción original realizada por colaboradores/usuarios de Coveralia.

¿Has encontrado algún error en esta página? Envíanos tu corrección del acorde