música
Buscador

Acorde de Volvamos A Empezar - Tete Novoa

Intro:

F C Dm

e---------------------------------------

B--8/10-8-8------------8----8-8/10-10---

G-----------10---10-10---10-------------

D---------------------------------------

A---------------------------------------

E---------------------------------------







A# F

e-------------------8-8-----------------

B--8/10-10-11-10-11---------------------

G---------------------------------------

D---------------------------------------

A---------------------------------------

E---------------------------------------







C A#

e--8-8-10-8-8---------------------------

B-------------10-10-11-10---------------

G-------------------------10------------

D---------------------------------------

A---------------------------------------

E---------------------------------------





F C Dm

Hoy despierto y siento que no estas

A# F

Esa esencia que tu solo me das

C A#

Que me enseña a caminar Ohohoh

F C Dm

Y quiero que volvamos a empezar

A# F

No existe una vida más

C G

Si tu no estas si tu te vas





F C Dm

Respétame, no me digas que no volverás

A# F

Que dejamos todo el tiempo atrás

C G

Que ya no estas si tu te vas

F C Dm

Y a pesar de que no pueda caminar

A# F

De que el valor me pueda más

C A#

Que cuando dices que no hay mas

F C Dm

Sobre mi todo el peso a decidir

A# F

El arco iris esta gris

C A#

desesperado y sin vivir







F C5 A#







F C Dm

Se que tengo tanto que decir

A# F

Tantas promesas que me hiciste cumplir

C A#

Que hoy solo canto para ti

F C Dm

Déjame que vuelva a respirar

A# F

Esa fuerza que sentí de verdad

C G

cuando me enseñaste a amar



http://www.coveralia.com/acordes/volvamos-a-empezar-tete-novoa.php



F C Dm

Respétame, no me digas que no volverás

A# F

Que dejamos todo el tiempo atrás

C G

Que ya no estas si tu te vas

F C Dm

Y a pesar de que no pueda caminar

A# F

De que el valor me pueda más

C A#

Que cuando dices que no hay mas

F C Dm

Sobre mi todo el peso a decidir

A# F

El arco iris esta gris

C A#

desesperado y sin vivir







F C Dm

e---------------------------------------

B--8/10-8-8------------8----8-8/10-10---

G-----------10---10-10---10-------------

D---------------------------------------

A---------------------------------------

E---------------------------------------







A# F

e-------------------8-8-----------------

B--8/10-10-11-10-11---------------------

G---------------------------------------

D---------------------------------------

A---------------------------------------

E---------------------------------------







C A#

e--8-8-10-8-8---------------------------

B-------------10-10-11-10---------------

G-------------------------10------------

D---------------------------------------

A---------------------------------------

E---------------------------------------





F C Dm

Y a pesar de que no pueda caminar

A# F

De que el valor me pueda más

C A#

Que cuando dices que no hay mas

F C Dm

Sobre mi todo el peso a decidir

A# F

El arco iris esta gris

C A# F

desesperado y sin vivir



Antes de comenzar la segunda estrofa suena mejor usar C5 en lugar de C

y A#5 en lugar de A#.



El acorde G que se usa es:



G

e---3-------------

B---3-------------

G---4-------------

D---5-------------

A---5-------------

E---3-------------









Letra subida por: Anónimo

Discos en los que aparece este acorde: Tete Novoa , Ttn Live

El acorde de Volvamos A Empezar de Tete Novoa es una versión de la canción original realizada por colaboradores/usuarios de Coveralia.

¿Has encontrado algún error en esta página? Envíanos tu corrección del acorde