música
Buscador

Acorde de Volar - Balak



ESTROFA 1



E-------------------------------------------------------------

A-------------------------------------------------------------

D-------------------------------------------------------------

G-------------------------------------------------------------

B-2--2--2--2--2--2--2--2--0--0--0--0---0--0--0--0-------------

E---0--0--0--0--0--0--0--0--0--0--0--0--0--0--0---0-----------

No, no quiero ya creer, en ti ni un día

E-------------------------------------------------------------

A-------------------------------------------------------------

D-------------------------------------------------------------

G-------------------------------------------------------------

B-0--0--0---0--0--0--0--0--2--2--2--2--2--2--2--2-------------

E--2---2--2--2--2--2--2--2---0--0--0--0--0--0--0--0-----------

Más te veo fuera de control



ESTROFA 2

E-------------------------------------------------------------

A-------------------------------------------------------------

D-------------------------------------------------------------

G-------------------------------------------------------------

B-0--0--0--0--0--0--0--0----0--0--0--0--0--0--0--0------------

E---3--3--3--3--3--3--3--3----2--2--2--2--2--2--2--2----------

Ya no ves más allá de ti Y al cabo de un

E-------------------------------------------------------------

A-------------------------------------------------------------

D-------------------------------------------------------------

G-------------------------------------------------------------

B-1--1--1--1--1--1--1--1---------1--1--1--1--1--1--1--1-------

E--3---3--3--3--3--3--3--3---------0--0--0--0--0--0--0--0-----

Tiempo nuestro amor se evapora con el sol



ESTROFA 3

E-------------------------------------------------------------

A-------------------------------------------------------------

D-------------------------------------------------------------

G-------------------------------------------------------------

B-6--6--6--6--6--6--6--6------6--6--6--6--6--6--6--6----------

E--5--5---5--5--5--5--5--5------4--4--4--4--4--4--4--4--------

Estoy cansado de sufrir me despido de tu piel



CORO

C G Am Em C

Hoy quiero volar, necesito libertad

G Am F

Y entrar a un mundo en donde tú no quieras estar



E----------------------------------

A----------------------------------

D----------------------------------

G---------------------------------- X2 veces

B----------------------------------

E-0-0-0-0----0-0-0-2-2-2-0-0-2-0---



ESTROFA 4

E-------------------------------------------------------------

A-------------------------------------------------------------

D-------------------------------------------------------------

G-------------------------------------------------------------

B-2--2--2--2--2--2--2--2-------0--0--0--0---0--0--0--0--------

E---0--0--0--0--0--0--0--0-------0--0--0--0--0--0--0---0------

Ya es tarde para hablar y lo mejor de

E-------------------------------------------------------------

http://www.coveralia.com/acordes/volar-balak.php

A-------------------------------------------------------------

D-------------------------------------------------------------

G-------------------------------------------------------------

B-0--0--0---0--0--0--0--0-----2--2--2--2--2--2--2--2----------

E--2---2--2--2--2--2--2--2------0--0--0--0--0--0--0--0--------

Mi y no liberas el rencor

ESTROFA 5

E-------------------------------------------------------------

A-------------------------------------------------------------

D-------------------------------------------------------------

G-------------------------------------------------------------

B-0--0--0--0--0--0--0--0----0--0--0--0--0--0--0--0------------

E---3--3--3--3--3--3--3--3----2--2--2--2--2--2--2--2----------

Hoy solo queda el dolor lo puedes encontrar

E-------------------------------------------------------------

A-------------------------------------------------------------

D-------------------------------------------------------------

G-------------------------------------------------------------

B-1--1--1--1--1--1--1--1---------1--1--1--1--1--1--1--1-------

E--3---3--3--3--3--3--3--3---------0--0--0--0--0--0--0--0-----

En cada rincón en donde estuvo nuestro amor



ESTROFA 6

E-------------------------------------------------------------

A-------------------------------------------------------------

D-------------------------------------------------------------

G-------------------------------------------------------------

B-6--6--6--6--6--6--6--6------6--6--6--6--6--6--6--6----------

E--5--5---5--5--5--5--5--5------4--4--4--4--4--4--4--4--------

Y se me puedo arrepentir pero hoy lo quiero así



CORO

C G Am Em C

Hoy quiero volar, necesito libertad

G Am F

Y entrar a un mundo en donde tú no quieras estar

C G Am Em C

Porque tú, no sabes amar, no sabes perdonar

G Am F

Voy a encontrar el rumbo contigo o sin ti



E----------------------------------

A----------------------------------

D----------------------------------

G---------------------------------- X2 veces

B----------------------------------

E-0-0-0-0----0-0-0-2-2-2-0-0-2-0---



CORO

C G Am Em C

Hoy quiero volar, necesito libertad

G Am F

Voy a encontrar el rumbo contigo o sin

C G Am F C G Am F

Tiiiiiiiiiiii sin Tiiiiiiiiiiii



E----------------------------------

A----------------------------------

D----------------------------------

G---------------------------------- X2 veces

B----------------------------------

E-0-0-0-0----0-0-0-2-2-2-0-0-2-0---



Letra subida por: Anónimo

Discos en los que aparece este acorde: Balak

El acorde de Volar de Balak es una versión de la canción original realizada por colaboradores/usuarios de Coveralia.

¿Has encontrado algún error en esta página? Envíanos tu corrección del acorde