música
Buscador

Acorde de Voices - Alice In Chains

Letra de Voices

Tuning: Half-step down (D# G# C# F# A# D#)

Chords:

D   A   Em  Bsus G
E|---2---0---0---0----3---|
B|---3---2---0---0----0---|
G|---2---2---0---0----0---|
D|---0---2---2---4----0---|
A|---0---0---2---2----2---|
E|---0---0---0---2----3---|

----

The vast majority of the song is the following progression, just played at different 
tempos or rhythms. It's the same for the intro, verse, and chorus. The only difference is 
the the bridge

and part of the outro.

Intro then verse:

D A  Em Bsus
E|---2-0--0--0-0---0-0-0-0-0-0---|
B|---3-2--0--0-0---0-0-0-0-0-0---|
G|---2-2--0--0-0---0-0-0-0-0-0---|
D|---0-2--2--4-4---4-4-4-4-4-4---|
A|---0-0--2--2-2---2-2-2-2-2-2---|
E|---0-0--0--2-2---2-2-2-2-2-2---|

When they go into the chorus it's the same progression, they just play each chord for 
about 6 strums. You can hear single notes being played along with which I think is one of 
them playing

single notes from these chords. I could probably figure it out if I took the time.

D            A            Em           Bsus
E|---2-2-2-2-2-2--0-0-0-0-0-0--0-0-0-0-0-0--0-0-0-0-0-0----|
B|---3-3-3-3-3-3--2-2-2-2-2-2--0-0-0-0-0-0--0-0-0-0-0-0----|
G|---2-2-2-2-2-2--2-2-2-2-2-2--0-0-0-0-0-0--0-0-0-0-0-0----|
D|---0-0-0-0-0-0--2-2-2-2-2-2--2-2-2-2-2-2--4-4-4-4-4-4----|
A|---0-0-0-0-0-0--0-0-0-0-0-0--2-2-2-2-2-2--2-2-2-2-2-2----|
E|---0-0-0-0-0-0--0-0-0-0-0-0--0-0-0-0-0-0--2-2-2-2-2-2----| x2
     Everybody    Listen       Voices       In my head
     Everybody    Listen    Cuz you'll see  What mine says

Then go right back into this for 4 measures after the chorus and the same for the verse.

D A  Em Bsus
E|---2-0--0--0-0---0-0-0-0-0-0---|
B|---3-2--0--0-0---0-0-0-0-0-0---|
G|---2-2--0--0-0---0-0-0-0-0-0---|
D|---0-2--2--4-4---4-4-4-4-4-4---|
A|---0-0--2--2-2---2-2-2-2-2-2---|
E|---0-0--0--2-2---2-2-2-2-2-2---|

The bridge and the outro are the same. Not 100% on this but it's close. I'm only 
providing the chord progression here, just listen when to change. Played three and a half 
times. When they

get through the first two chords the fourth time around they jump back into the original 
chord progression from the very top to finish it off then back into a verse.

Bridge and outro:

G   Em  Bsus D
E|---3---0---0----2---|
B|---0---0---0----3---|
G|---0---0---0----2---|
D|---0---2---4----0---|
A|---2---2---2----0---|
E|---3---0---2----0---|

************************************

| /   slide up
| \   slide down
| H   hammer-on
| p   pull-off
| ~   vibrato
| +   harmonic
| x   Mute note
| B   Bend
| pb  Pre-bend
| br  Bend release
| pbr Pre-bend release
| brb Bend release bend

************************************


Letra subida por: Anónimo

Discos en los que aparece este acorde: The Devil Put Dinosaurs Here

El acorde de Voices de Alice In Chains es una versión de la canción original realizada por colaboradores/usuarios de Coveralia.

¿Has encontrado algún error en esta página? Envíanos tu corrección del acorde