música
Buscador

Acorde de Vivo O Muerto - Angeles Del Infierno

Letra de Vivo O Muerto

  Riff A 
::------------------------:------------------------ 
::------------------------:------------------------ 
::------------------------:------------------------ 
::------------9--7-9--7-7-:------------9--7-9--7-9- 
::-10-7-9-7-5-7--5-7--5-7-:-10-7-9-7-5-7--5-7--5-7- 
::------------------------:------------------------ 

:-----------------------:------------------------- 
:-----------------------:------------------------- 
:-----------------------:------------------------- 
:-----------9--7-9--7-9-:------------9--7-9--7-9-- 
:-3-0-2-0---7--5-7--5-7-:-10-7-9-7-5-7--5-7--5-7-- 
:---------3-------------:------------------------- 

:-----------------------------------------------------:: 
:-----------------------------------------------------:: 
:-----------------------------------------------------:: 
:------------5------------------------------7-5-4-5-4-:: 
:-3-0-2-0----3--3-3-3-3-3-3-3-3-3-3-3-3-3-3-5-3-2-3-2-:: 
:---------3-------------------------------------------:: 

:--------------------------------------------------- 
:------------------------------------------------------ 
:----------------------------------------------------- 
:-7--------9---12--------9---5--------7---7--------9--- 
:-5--7-7-7-7---10--7-7-7-7---3--5-5-5-5-x-5--7-7-7-7--- 
:----------------------------------------------------- 
  1. Has vivido siempre desde que el mundo existio 
  2. Matas ilusiones que no dejas alcanzar 

:----------------------------------------------------- 
:----------------------------------------------------- 
:--------------------------------------------------- 
:-7--------9---12--------9---5--------7---7--------9--- 
:-5--7-7-7-7---10--7-7-7-7---3--5-5-5-5-x-5--7-7-7-7--- 
:------------------------------------------------------ 
  has comprado honores y no has dado explicación 
  creas confusiones que solo puedes crear 

:--------------------------------------------------- 
:--------------------------------------------------- 
:----------------------------------------------------- 
:-4------------7------------4-----------2-------------- 
:-2------------5------------2-----------0-------------- 
:--------------------------------------------------- 
 mandas en los hombres y complaces la anvición 
 planificas guerras en nombre de la verdad 
:-------------------------------------------------- 
:---------------------------------------------------- 
:------------------------------------------------------ 
:-4-----------7-----------4-----------2-------------- 
:-2-----------5-----------2-----------0--------------- 
:----------------------------------------------- 
 tu das los sentidos y no tienes compasión 
 haces tu justicia sin contar con los demas 

:----------------------------------------------------- 
:----------------------------------------------------- 
:--------------------------------------------------- 
:-7--------9---12--------9---5--------7---7--------9--- 
:-5--7-7-7-7---10--7-7-7-7---3--5-5-5-5-x-5--7-7-7-7--- 
:------------------------------------------------------ 
  cambias los sistemas nunca pides la opinión 
  matas a los hombres y no tienes compasión 

:------------------------------------------------------------ 
:---------------------------------------------------------------- 
:------------------------------------------------------------------ 
:-4-----------7----------4----------5------------7-------------9--- 
:-2-----------5----------2----------3--3-3-3-3-3-5--5-5-5-5-5--7---- 
:------------------------------------------------------------------- 
 compras a los reyes y tu brillo siempre atrae    es el mejor 
 compras a los reyes y tu brillo siempre atrae    es el mejor 
  

ESTRIBILLO ( con riff A ) 

  No se si estoy , vivo o muerto 
  no se si estoy , vivo o muerto 
  es posible que esto sea sueño realidad. 
  

Solo ( con riff B ) 

  Riff C (x2) 
::--------------------------------------------------------:: 
::--------------------------------------------------------:: 
::--------------------------------------------------------:: 
::--------------------------------------------------------:: 
::-7------------7-------------5-------------7-------------:: 
::-5--5-5-5-5-5-5--5-5-5-5-5--3--3-0-3-0-3--5--5-5-5-5-5--:: 
   Siembras inquietudes tu disfraz es el mejor 

:------------------------------------------------------------ 
:---------------------------------------------------------------- 
:------------------------------------------------------------------ 
:-4-----------7----------4----------5------------7-------------9--- 
:-2-----------5----------2----------3--3-3-3-3-3-5--5-5-5-5-5--7---- 
:------------------------------------------------------------------- 
 compras a los reyes y tu brillo siempre atrae    es el mejor 
  

ESTRIBILLO ( con riff A ) 
  
  
  
  
  

 Volver


Letra subida por: Anónimo

Discos en los que aparece este acorde: Diabolicca

El acorde de Vivo O Muerto de Angeles Del Infierno es una versión de la canción original realizada por colaboradores/usuarios de Coveralia.

¿Has encontrado algún error en esta página? Envíanos tu corrección del acorde