música
Buscador

Acorde de Viviré Para Ti - Los Amigos Invisibles

Letra de Viviré Para Ti

Notas



Bm C#m Dm Em F#m Cm7 Cm Dm7 Em7 D#m D#m7

|---2----4----5----7----9----3----3----5----7----6----6----

|---3----5----6----8----10---5----4----7----9----7----8----

|---4----6----7----9----11---4----5----6----8----8----7----

|---4----6----7----9----11---5----5----7----9----8----8----

|---2----4----5----7----9----3----3----5----7----6----6----

|---2----4----5----7----9----3----3----5----7----6----6----

/







Intro





Bm C#m Dm Em F#m

|---2----4----5----7----9---

|---3----5----6----8----10--

|---4----6----7----9----11--

|---4----6----7----9----11--

|---2----4----5----7----9---

|---2----4----5----7----9---

/







Bm C#m Cm7 Cm





Bm C#m

Ven y dame todo lo q tienes



Cm7 Cm

que yo esperando estaré aqui



Bm C#m

Ven y besame hasta la muerte



Cm7 Cm

y asi yo seré por ti feliz





Bm C#m

Entregaré mi vida y no tendre salida



Cm7 Cm

solo tuyo seré



Bm

te llevaré hasta el cielo



C#m

y dormiré en tus senos



Cm7 Cm

solo tuyo seré





Bm C#m Dm Em F#m

|---2----4----5----7----9---

|---3----5----6----8----10--

|---4----6----7----9----11--

|---4----6----7----9----11--

|---2----4----5----7----9---

|---2----4----5----7----9---

/



Bm C#m

Ven y dame todo lo que kieras



Cm7 Cm

que yo esperando estaré por ti



Bm C#m

ven y llevate lo q prefieras



Cm7 Cm

que todo, todo esto es para ti



Bm

y entregaré mi vida



C#m

y no tendre salida



Cm7 Cm

solo tuya seré



Bm

te llevare hasta el cielo



C#m

y dormire en tus senos



Cm7 Cm

solo tuya seré.







Viviré para ti

Bm C#m Dm Em F#m

|---2----4----5----7----9---

|---3----5----6----8----10--

|---4----6----7----9----11--

|---4----6----7----9----11--

|---2----4----5----7----9---

|---2----4----5----7----9---

/





Bm

Tu te entregas lentamente,



C#m

y yo te toco dulcemente



Cm7

anda kedate en mi mente



Cm

hagamos q este amor reviente



Bm

tu seras la q me inspire



C#m

me consienta y me domine



Cm7

no dejemos q termine



Cm

pues yo haré q t fascine

http://www.coveralia.com/acordes/vivire-para-ti-los-amigos-invisibles.php





Viviré para ti

Bm C#m Dm Em F#m

|---2----4----5----7----9---

|---3----5----6----8----10--

|---4----6----7----9----11--

|---4----6----7----9----11--

|---2----4----5----7----9---

|---2----4----5----7----9---

/



Solo







|--9---9---9---9---9----------------------------

|----12--12--12--12---12---9-10-12-9------5--7-8

|-----------------------------------9--7--------

|-----------------------------------------------

|-----------------------------------------------

|-----------------------------------------------

/





|--9---9---9---9--12--9---------------------------

|----12--12--12---------12---9-10-12-9------5--9-8

|-----------------------------------9--7----------

|-------------------------------------------------

|-------------------------------------------------

|-------------------------------------------------

/





ta ta ta ta ta ra, ta ta ta ta ra, solo tuyo seré

|---12-11-10-9-8-7-----12-11-10-9-8-7--------9---------

|--9-----------------9------------------9-12---9--12-11

|------------------------------------------------------

|------------------------------------------------------

|------------------------------------------------------

|------------------------------------------------------

/



ta ta ta ta ta ra, ta ta ta ta ra, solo tuyo seré

|---------10---12-11-10-9-8-7-----12-11-10-9-8-7--------9---------

|-9-11-12----------------------9-------------------9-12---9--12-11

|-----------------------------------------------------------------

|-----------------------------------------------------------------

|-----------------------------------------------------------------

|-----------------------------------------------------------------

/





Dm7

Tu te entregas lentamente,



Em7

yo te toco dulcemente



D#m

anda quedate en mi mente



D#m7

hagamos que este amor reviente



Dm7

tu seras la q me inspire



Em7

me consienta y me domine



D#m

no dejemos q termine



D#m7

pues yo haré que te





Dm7

Tu te entregas lentamente,



Em7

yo te toco dulcemente



D#m

anda quedate en mi mente



D#m7

hagamos que este amor reviente



Dm7

tu seras la q me inspire



Em7

me consienta y me domine



D#m

no dejemos q termine



D#m7

pues yo haré que te fascine.







Viviré para ti

Bm C#m Dm Em F#m

|---2----4----5----7----9---

|---3----5----6----8----10--

|---4----6----7----9----11--

|---4----6----7----9----11--

|---2----4----5----7----9---

|---2----4----5----7----9---

/



Viviré para ti

Bm C#m Dm Em F#m

|---2----4----5----7----9---

|---3----5----6----8----10--

|---4----6----7----9----11--

|---4----6----7----9----11--

|---2----4----5----7----9---

|---2----4----5----7----9---

/



Viviré para ti

Bm C#m Dm Em F#m

|---2----4----5----7----9---

|---3----5----6----8----10--

|---4----6----7----9----11--

|---4----6----7----9----11--

|---2----4----5----7----9---

|---2----4----5----7----9---

/

Letra subida por: Anónimo

Discos en los que aparece este acorde: Comercial

El acorde de Viviré Para Ti de Los Amigos Invisibles es una versión de la canción original realizada por colaboradores/usuarios de Coveralia.

¿Has encontrado algún error en esta página? Envíanos tu corrección del acorde