música
Buscador

Acorde de Vivir Asi Es Morir De Amor - Camilo Sesto

Letra de Vivir Asi Es Morir De Amor



INTRO



Em B7

e ---------5-------------------------------------------

B ----5-7-----8--7--5-7--8--7--------5--7-----5-7------

G ---------------------------------8-------8-----------

D -----------------------------------------------------

A -----------------------------------------------------

E -----------------------------------------------------



Em B7

e ---------5-------------------------------------------

B ----5-7-----8--7--5-7--8--7--------5--7--------------

G ---------------------------------8-------------------

D -----------------------------------------------------

A -----------------------------------------------------

E -----------------------------------------------------







Em

Siempre me traiciona la razón

Am

y me domina el corazón

D G B7

no sé luchar contra el amor



Em

siempre me voy a enamorar

Am D

de quien de mí no se enamora

G

es por eso que mi alma llora.



C Em C Em

Y ya no puedo más, ya no puedo más

C D

siempre se repite esta misma historia

C Em C Em

ya no puedo más, ya no puedo más

C Am D B7 C

estoy harto de rodar como una noria.



G Bm Dm

Vivir así es morir de amor

G Dm

y por amor tengo el alma herida

Cm G

por amor , no quiero más vida que su vida

D C

melancolía.

http://www.coveralia.com/acordes/vivir-asi-es-morir-de-amor-camilo-sesto.php



G Bm Dm

Vivir así es morir de amor

G Dm

soy mendigo de sus besos

Cm G

soy su amigo, quiero ser algo más que eso

D B7

melancolía.



Em

Siempre se apodera de mi ser

Am

mi serenidad se vuelve locura

D G B7

y me llena de amargura



Em

siempre me voy a enamorar

Am D

de quien de mí no se enamora

G

es por eso que mi alma llora.



C Em C Em

Y ya no puedo más, ya no puedo más

C D

siempre se repite la misma historia

C Em C Em

ya no puedo más, ya no puedo más

C Am D B7 C

estoy harto de rodar como una noria.



G Bm Dm

Vivir así es morir de amor

G Dm

por amor tengo el alma herida

Cm G

por amor , no quiero más vida que su vida

D C

melancolía.



G Bm Dm

Vivir así es morir de amor

G Dm

soy mendigo de sus besos

Cm G

soy su amigo, quiero ser algo más que eso

D C

melancolía...

Letra subida por: Anónimo

El acorde de Vivir Asi Es Morir De Amor de Camilo Sesto es una versión de la canción original realizada por colaboradores/usuarios de Coveralia.

¿Has encontrado algún error en esta página? Envíanos tu corrección del acorde