música
Buscador

Acorde de Vives En Un Cuento - Angeles Del Infierno

Letra de Vives En Un Cuento

    Riff A  

Guitarra 1

-::---------------:----------------:------------------:------------------::

-::-10--10--10-10-:----------------:------------------:---10--10--10-10--::

-::-9---9---9--9--:--10--10--10-10-:--12---12---12-12-:---9---9---9--9---::

-::-7---7---7--7--:--10--10--10-10-:--12---12---12-12-:---7---7---7--7---::

-::---------------:--8---8---8--8--:--10---10---10-10-:------------------::

-::---------------:----------------:------------------:------------------::

:: ::

:: ::

::Guitarra 2 ::

-::-----10--10-9--:------6---6--5--:-------8----8--7--:-------10--10-9---::

-::-----10--10-10-:------6---6--6--:-------8----8--8--:-------10--10-10--::

-::---------------:----------------:------------------.------------------::

-::---------------:----------------:------------------:------------------::

-::---------------:----------------:------------------:------------------::

-::---------------:----------------:------------------.------------------::



Solo 1

A F G A

-::------------------------------------------------------------::

-::-----------------8------------------------------------------::

-::-9---9---9--7-------10--9--7--------------------------------::

-::--------------10--------------10---9--10--12--10-9----------::

-::----------------------------------------------------12-10---::

-::------------------------------------------------------------::





Verso 1



D B

Tu crees que en algún lugar

C D

esta tu príncipe azul

D B

té ríes de todo aquel

C D

que intenta acercarse a ti



G G

Yo que soy un tío normal

G C C

a veces no entiendo porque quieres jugar

F G A

a que té ponga un zapato de cristal





Estribillo:



E C D

Ooooo oooo ooooohh oooH ooooooooohhh



E C D

Vives en un cuento.





Se repite con el solo 1 y sigue con el siguiente verso:



http://www.coveralia.com/acordes/vives-en-un-cuento-angeles-del-infierno.php

Verso 2



D B

Te gusta aunque lo niegues

C D

oír lo buena que estas

D B

y que todos alucinen

C D

cuando té vean pasar



G G

Sé muy bien té gusta jugar

A C C

a las muñecas a pesar de tu edad

F G A

y tu princesa en un cuento sin final.





Se repite de nuevo el estribillo, a continuación el solo 1

y después lo siguiente:



SOLO 2

D B C D D B C

-::-\10---10--8----8-----------------\10---10--8----8---------------

-::------------------8--10--11--10--------------------8--10--10--11--

-::-----------------------------------------------------------------

-::-------------------------------------------------------------

-::------------------------------------------------------------

-:: ----------------------------------------------------------

F G

--13-------13-------13-------13---------15-------15-------15-------

-----13-13----13-13----13-13----13-13------15-15----15-15----15-15-

-------------------------------------------------------------------

----------------------------------------------------------------------

--------------------------------------------------------------------

-------------------------------------------------------------------

A A A A A A A

--15---------17-17-17-17-17-17-17/-------------------------------

-----15-15--------------------------------------------------

-------------------------------------------------------

----------------------------------------------------

------------------------------------------------------

---------------------------------------------------



E C D E

Y si en algún momento decides cambiar

E C D D D D D

ya sabes lo que yo siento eso si es de verdad

E C D E

soñar no es nada malo pero puede pasar

E C D D D D D

que encima de tu nube nunca quieras bajar





La cancion termina repitiendo el estribillo unas cuantas veces.



Letra subida por: Anónimo

Discos en los que aparece este acorde: 666

El acorde de Vives En Un Cuento de Angeles Del Infierno es una versión de la canción original realizada por colaboradores/usuarios de Coveralia.

¿Has encontrado algún error en esta página? Envíanos tu corrección del acorde