música
Buscador

Acorde de Violados Y Devorados - Horcas

Letra de Violados Y Devorados

Intro.



e|-----------------------------|

B|-----------------------------|

G|-----------------------------| X2

D|-----6--9--8--8--9--8--6--8--|

A|--7--4--7--6--6--7--6--4--6--|

E|--5--------------------------|



e|------------------------|

B|------------------------|

G|------------------------|

D|-----6--9--8--8--9--8---|

A|--7--4--7--3--2--1--0---|

E|--5---------------------|



C5-B5-A5#-A5



e|----------------------------------------------------------------|

B|----------------------------------------------------------------|

G|----------------------------------------------------------------| Riff 1

D|----------------------------------------------------------------|

A|-10-10-10-10-10-10-10-9-9-9-9-9-9-9-8-8-8-8-8-8-8-7-7-7-7-7-7---|

E|--8-8--8--8--8--8--8--7-7-7-7-7-7-7-6-6-6-6-6-6-6-5-5-5-5-5-5---|



e|---------------------------------------------------------|

B|---------------------------------------------------------|

G|---------------------------------------------------------| Riff 2

D|-----6--9--8--8--9--8--6--8-----6--9--8--8--9--11--8--9--|

A|--7--4--7--6--6--7--6--4--6--7--4--7--6--6--7---9--6--7--|

E|--5--------------------------5---------------------------|



FINAL.



http://www.coveralia.com/acordes/violados-y-devorados-horcas.php

e|--------------|

B|--------------|

G|--------------|

D|-----6--9--8--|

A|--7--4--7--6--|

E|--5-----------|



Riff 1



Esta torre de inmigrantes, es la torre de Babel

donde impera el egoísmo y el afán de enriquecer.

Coronados de gloria, vienen a dividirnos

su bandera política, es la de ayer.



Riff 2



Liberense, oid mortales.

Liberense, oid mortales.



Riff 1



El gran pueblo Argentino, dominado y desunido

destruida su esencia y devorado por los de afuera.

Coronados de gloria, vienen a dividirnos

su bandera política, es la de ayer.



Riff 2



Liberense, oid mortales.

Liberense, oid mortales.



FINAL.

Letra subida por: Anónimo

Discos en los que aparece este acorde: Oid Mortales El Grito Sangrado , Horcas Vive

El acorde de Violados Y Devorados de Horcas es una versión de la canción original realizada por colaboradores/usuarios de Coveralia.

¿Has encontrado algún error en esta página? Envíanos tu corrección del acorde