música
Buscador

Acorde de Viéndolo - Los Twist





/ LA / MI / SIm /

6----------------------------------------------------

5----------------------------------------------------

4------2-------2-------2-------2-------4--------4----

3----2---2---2---2---1---1---1---1---4---4---4-----4-

2--2-------2-------0-------0-------3-------3---------

1----------------------------------------------------



/ FA#m / MI / MI /

6----------2----------------------------------------

5--------4------------------------------------------

4------4-------------2-------2-------2-------2------

3----2-------------1---1---1---1---1---1---1---1----

2--2-------------0-------0-------0-------0----------

1---------------------------------------------------



LA MI SIm FA#m MI

Puedo ver, una luz en la oscuridad

LA MI SIm FA#m MI

La siento venir, no la ve ningún hombre más



Decís que este callada que no haga caras raras

Y bien quisiera verlo pero no puedo ver nada



Que placer (que placer) siento al ver

Lo que nadie ve



Y vos estas de nuevo, diciendo cosas raras

Se esfuerza mucho el cuerpo se nubla la mirada



http://www.coveralia.com/acordes/viendolo-los-twist.php

Muy cerca de mi, puedo ver una luz brillar



RE LA MI

Por mas que me lo expliques yo no lo voy a entender

RE

No se ve



LA MI SIm FA#m MI

Yo lo vi, me sonrió y se volvió a marchar

Soy feliz, ahora se que soy inmortal



RE LA MI

Por mas que me lo expliques yo no lo voy a entender



RE LA MI

Por mas que me convenzas yo no lo voy a creer

RE LA MI

No se ve, no se ve



Puedo ver, una luz en la oscuridad

La siento venir, no la ve ningún hombre más

Puedo ver, una luz en la oscuridad

La siento venir, no la ve ningún hombre más



LA MI SIm FA#m MI

Yo no lo veo padre Eduardo, ceguera? ] Parte hablada

Acaso mis ojos no pueden llorar? ] por Pipo







Letra subida por: Anónimo

Discos en los que aparece este acorde: La Maquina Del Tiempo

El acorde de Viéndolo de Los Twist es una versión de la canción original realizada por colaboradores/usuarios de Coveralia.

¿Has encontrado algún error en esta página? Envíanos tu corrección del acorde