música
Buscador

Acorde de Victim - Avenged Sevenfold

Letra de Victim

 Intro 2x: 

E|--------------------------------------------------------------------------|

B|---------6--4--3----------------6--4--3-----3h4p3-------------------------|

G|-------5----------------------5-------------------3-----------------------|

D|-----5----------------5-----5---------------------------------------------|

A|-3----------------------3-------------------------------------------------|

E|---3----------------------3-----------------------------------------------|



0:33 D# Cm

E|------------------------------------------------------------------------------------------|

B|--8----8-9-8-------8-9-11--9-8---8-9-11-------------4----4---4---4---4--------6p4-6p4---4-|

G|--8----8-----8-----8-------------8------------------5----5-5-----5-5------------------5---|

D|--8------------8------------------------------------5----5-------5------------------------|

A|--6-------------------------------------------------3----3-------3------------------------|

E|------------------------------------------------------------------------------------------|



D#

E|----------------------------------------------------8---------------------|

B|--9p8-----9p8-9-8-------------4/-8----------------------------------------|

G|--8--------------------------------------------5/8------------------------|

D|--8-----------------------------------------------------------------------|

A|--6-----------------------------------------------------------------------|

E|--------------------------------------------------------------------------|



(Intro)



Guitarra 2: 0:59 1:05

E|--8/10---10\8-------------------------------------8-------10---------11---|

B|--------------------------------------------------------------------------|

G|--5/7----7\5----------------------------------8-8---8-8/10---10-10/12-----|

D|--------------------------------------------------------------------------|

A|--------------------------------------------------------------------------|

E|--------------------------------------------------------------------------|







Acordes do Verso:



( C G# C G# )



( Bb G# Bb G# )



C G#

House full of roses A letter on the stairs

C G#

I tape all of messages For anyone who cares

Bb G#

Closure broken words And stories full of tears

Bb G#

Remembering your life Cause we wish you were here



(Repete os Acordes)





Refrão:

And some say this can't be real And i've lost my power to feel,

E|---------------------------------------------------------------------------|

B|---------------------------------------------------------------------------|

G|---5-5----5-5-5-5-5---5-5-5-5-5-5-5-5-5---5-5-5-5-5---5-5-5-5-5-5-5--------|

D|---5-5----5-5-5-5-5---5-5-5-5-5-5-5-5-5---5-5-5-5-5---5-5-5-5-5-5-5--------|

A|---3-5----3-3-3-3-3---3-3-3-3-3-3-3-3-3---3-3-3-3-3---3-3-3-3-3-3-3--------|

E|---------------------------------------------------------------------------|



tonight We are all just victims of a crime

E|---------------------------------------------------------------------------|

B|---------------------------------------------------------------------------|

G|---3-3----3-3-3-3-3---3-3-3-3-3-3-3-8---8----------------------------------|

D|---3-3----3-3-3-3-3---3-3-3-3-3-3-3-8---8---x-5---5-5-5-5-5-5--------------|

A|---1-1----1-1-1-1-1---1-1-1-1-1-1-1-6---6---x-5---5-5-5-5-5-5--------------|

E|--------------------------------------------x-3---3-3-3-3-3-3--------------|



When all is gone and can't be regained We can't seem to shelter the pain

E|---------------------------------------------------------------------------|

B|---------------------------------------------------------------------------|

G|---5-5----5-5-5-5-5---5-5-5-5-5-5-5-5-5---5-5-5-5-5---5-5-5-5-5-5-5--------|

D|---5-5----5-5-5-5-5---5-5-5-5-5-5-5-5-5---5-5-5-5-5---5-5-5-5-5-5-5--------|

A|---3-5----3-3-3-3-3---3-3-3-3-3-3-3-3-3---3-3-3-3-3---3-3-3-3-3-3-3--------|

E|---------------------------------------------------------------------------|



inside We are all just victims of a crime

E|---------------------------------------------------------------------|

B|---------------------------------------------------------------------|

G|---3-3----3-3-3-3-3---3-3-3-3-3-3-3-8---8----------------------------|

D|---3-3----3-3-3-3-3---3-3-3-3-3-3-3-8---8---x-5----------------------|

A|---1-1----1-1-1-1-1---1-1-1-1-1-1-1-6---6---x-5----------------------|

E|--------------------------------------------x-3----------------------|



Guitarra 1:

E|------------------------------|

B|---------6--4--3--------------|

G|-------5----------------------|

D|-----5------------------------|

A|-3----------------------------|

E|---3--------------------------|



Guitarra 2:

E|---------8--------10---------12---------------|

B|----------------------------------------------|

G|-----8-8---8-8/10---10-10/12------------------|

D|----------------------------------------------|

A|----------------------------------------------|

E|----------------------------------------------|



(Verso)



(Refrão)



Guitarra 1:

E|-------------------------------------------------------------------|

B|-------------------------------------------------------------------|

G|--5---5--xx-3-5---5------------------------------------------------|

D|--5---5--xx-3-5---5---5-7-8-7-5-------------6---6--xx-6----6-6-----|

A|--3---3--xx-1-3---3---3-5-6-5-3-5-/8---6--x-6---6--xx-6----6-6-----|

E|--------------------------------3-/6---4--x-4---4--xx-4----4-4-----|



E|-------------------------------------------------------------------|

B|-------------------------------------------------------------------|

G|---------------------------------5---5--xx-3-5--5---5---3-5-8---5--|

D|-x--3--3--x-3-3--x-3--xx-3-3-x---5---5--xx-3-5--5---5---3-5-8---5--|

A|-x--3--3--x-3-3--x-3--xx-3-3-x---3---3--xx-1-3--3---3---1-3-6---3--|

E|-x--1--1--x-1-1--x-1--xx-1-1-x-------------------------------------|



Guitarra 2 - Solo 1:

E|-----------------------------------------------------------------------------------|

B|--12b13~~~~---13-15-16-15-13-------------------------------------------------------|

G|-----------------------------12-13/15-13-----\8---10---12---13-12-10-12-10----10---|

D|---------------------------------------------------------------------------13------|

A|-----------------------------------------------------------------------------------|

E|-----------------------------------------------------------------------------------|



E|-------------------------------------------------------------------------------|

B|--------13-16-18b20~~--b21-18-13-16b18---13h16p13----13------------------------|

G|--------------------------------------------------15----15-12-------15b17--b17~|

D|--13-15-------------------------------------------------------15-13------------|

A|-------------------------------------------------------------------------------|

E|-------------------------------------------------------------------------------|



E|--------------15-16-15---------------15-16-15---------------15-16-18b20~~~~~--|

B|-----15-16-18---------------15-16-18---------------15-16-18-------------------|

G|--17---------------------17---------------------17----------------------------|

http://www.coveralia.com/acordes/victim-avenged-sevenfold.php

D|------------------------------------------------------------------------------|

A|------------------------------------------------------------------------------|

E|------------------------------------------------------------------------------|







Cm G# D#

nothing lasts forever for all good things its true

G Cm

id rather trade it all somehow saving you

G# D#

must have been the season that threw us out of line

G D#

once i stood so tall now im searching for a sign



Bb Cm

so dont need your salvation with promises and kind

G# D#

and all those speculation save it for another time

Bb Cm

cause we all need a reason a reason just to stay

G# Cm

well some just cant be bothered to stick around another day





Pré-Solo:

Guitarra 2:

E|--------------------|

B|--------------------|

G|---5~---------------|

D|---5~---------------|

A|---3~---------------| (4x)

E|--------------------|



Guitarra 1:

E|---------------|----------------|-----------------|------------------|

B|--6--4--3~-----|-3-3--6--4--3---|--3-3--6--4--3---|--3--6--4--3------|

G|---------------|-5-5------------|--5-5------------|--5---------------|

D|---------------|-5-5------------|--5-5------------|--5---------------|

A|---------------|----------------|-----------------|------------------|

E|---------------|----------------|-----------------|------------------|



Guitarra 1 - 2x:

E|---------------------------------------------------------------------|

B|---------------------------------------------------------------------|

G|--8-----------------------5------------------------------------------|

D|--8-----------8-----------5-------------6----------------------------|

A|--6-----------8-----------3-------------6----------------------------|

E|--------------6-------------------------4----------------------------|



Guitarra 2 - Solo:

E|---------------------------------------------------------------------|

B|--15-b16-b16~--16r15---16-------------------16-----------------------|

G|--------------------------15---12---15b17-------b17-15-12-15b17r15---|

D|---------------------------------------------------------------------|

A|---------------------------------------------------------------------|

E|---------------------------------------------------------------------|



E|---------------------------------------------------------------------------18-------------------|

B|--------------------------------------------------/11-11---9--/16~---18b20------b20r18--16------|

G|--10b12r10b12~~--8----8---10-8-10b12---8----8----------------------------------------------15---|

D|-------------------10--------------------10-----------------------------------------------------|

A|------------------------------------------------------------------------------------------------|

E|------------------------------------------------------------------------------------------------|



E|-------------------------------------------------------------------------------|

B|--20-16-15-20-15-16-15---------------------------------------------------------|

G|-----------------------15-19\15----15------15----------------------------------|

D|--------------------------------17----17-15------17----------------------------|

A|----------------------------------------------18----18-17-18-17----------------|

E|----------------------------------------------------------------18-13-11/15----|



E|---------------------------------------------------------------------|

B|---------------------------------------------------------------------|

G|--------------------------------15-------17-------19~---b20r19-17----|

D|--/13-12---13-12-13/15-----8/12----12/15----15/17--------------------|

A|---------------------------------------------------------------------|

E|---------------------------------------------------------------------|



E|-------15-18-b20--15------------------15-18-b20--r18p16p15-16b18-r16-16---18-----------15--16-15~|

B|----16---------------16------------16------------------------------------------16--18------------|

G|-17---------------------15-17~--17---------------------------------------------------------------|

D|-------------------------------------------------------------------------------------------------|

A|-------------------------------------------------------------------------------------------------|

E|-------------------------------------------------------------------------------------------------|



(Refrão)



im missin you....(capo on 3rd fret) (4x)

E|--------------------------|

B|---------3--1--0----------|

G|-------2------------------|

D|-----2------------------2-|

A|-0------------------------|

E|---0----------------------|



(Capo Casa 3)

E|---------------------------------------------------------------------------------------------|

B|--0h1p0-----------1----------------1---------------1---------------1---------------1---------|

G|--------0-----0-----0----------0-----0---0-----0-----0---------0-----0---------2-----2-------|

D|------------2---2-----2------2---2-----2-----2---2-----2-----2---2-----2-----2---2-----2-----|

A|----------3-------------3------------------3-------------3---------------3-0-------------3-0-|

E|---------------------------------------------------------------------------------------------|



E|-------------------------------------------------------------------------------------------------|

B|------0---------------1-------3-------1---------------1--------------1--------------1-----3-----1|

G|--2-----2---------2-----2---2---2---2---2---------0-----0--------0-----0---0-----0----0-----0----|

D|2---2-----2-----2---2-----2-------2-------2-----2---2-----2----2---2-----2-----2---2----2-----2--|

A|------------3-0-----------------------------0-3-------------3----------------3-------------------|

E|-------------------------------------------------------------------------------------------------|



E|-------------------------------------------------------------------------------------------------|

B|--1---------------1-------0-------0-------1-------1-------3-------3-------5-------5-------6------|

G|0---0---------2-----2-------2-------2-------2-------2-------2-------2-------5-------5-------5----|

D|------2-----2---2-----2-------2-------2-------2-------2-------2-------2-------5-------5-------5--|

A|--------3-0-------------0-------0-------0-------0-------0-------0-------0-------3-------3-------3|

E|-------------------------------------------------------------------------------------------------|



E|--------------------------------------------0---0---------------3-----------0---0---------------|

B|6-------5-------5-------3-------1-----------1-1---1---1-----3-----3---3-------1-1-1-0-1-3-0-----|

G|--5-------5-------5-------0---0---0---0---2---------2-----4---4-----4-4---2-------------4---2---|

D|----5-------5-------5-------2-------2-----------------------------------------------------------|

A|------3-------3-------3-----------------0---------------0---------------0---------------------0-|

E|------------------------------------------------------------------------------------------------|



E|--------0-------0-------1-------1-------3-------3-------|

B|3-0-----1-1-----1-1-----1-------1-------3-------3-------|

G|4---2-------0-------0-----0-------0-------0-------0-----|

D|--------------2-------2-----0-------0-------0-------0---|

A|------0-----------------------3-------3-------3-------3-|

E|--------------------------------------------------------|



E|----------------------|

B|---5-3---5-3---3-5-1~-|

G|---5-4-4-5-4-4-4-5-2~-|

D|-------5-----5--------|

A|----------------------|

E|----------------------|

Letra subida por: Anónimo

Discos en los que aparece este acorde: Nightmare

El acorde de Victim de Avenged Sevenfold es una versión de la canción original realizada por colaboradores/usuarios de Coveralia.

¿Has encontrado algún error en esta página? Envíanos tu corrección del acorde