música
Buscador

Acorde de Viaje A La Realidad - Logos

Letra de Viaje A La Realidad

Intro:

D5 C5 A#5 A5 A#5 x2



segunda guitarra

e----------------------------------6-----5-|

B---7----5--7--8---5----8----5--8----------| 1 VEZ



e----------------------------------6-----8-|

B---7----5--7--8---5----8----5--8----------| 2 VEZ



A--6-6---6-8-4-4--- X4

E--4-4---4-6-2-2---



D------7---------| |------7-----------|

A--5-3-5-5-4---3-| X3 |--5-3-5-5-4-4-5-7-|

E--3-1---3-2---1-| |--3-1---3-2-2-3-5-|



Segunda guitarra

B-33333333333333333333333333333333333333-|



D----7------------|------7------------| |------7------------|

A--3-5-5-4---3-3--|--5-3-5-5-4---3-3--| X2 |--5-3-5-5-4-4-5-7--|

E--1---3-2---1-1--|--3-1---3-2---1-1--| |--3-1---3-2-2-3-5--|



Segunda guitarra

B-333333333333333333333333333333333333333333333333333333333333-|







Verso 1

B5 A5

Sumergido en la gran ciudad

E5 G5 A#5

Me traspasa la soledad

B5 A5

La injusticia la oscuridad

E5 G5 F#5

Y el dolor del silencio que se calla.



http://www.coveralia.com/acordes/viaje-a-la-realidad-logos.php

PRE-CORO 1:

D5 E5 F5

Y en cada ser, la decepción

G5 F5 E5 D#5

Es un abismo que arremete contra el alma

D5 E5 F5

Como una daga cruel, que agita en el dolor

G5 F5 E5 D#5

De los que esperan siempre y no reciben nada.



D5 C5 A#5 A5 A#5

En este viaje a la realidad.



Verso 2:

B5 A5

Y en la noche ciega de amor

E5 G5 A#5

Chicos duermen en las calles

B5 A5

Solo sueñan con despertar

E5 G5 A#5

En las veredas olvidadas de los nadie.



PRE-CORO2:



Y en cada ser, la vanidad

Entro en horizontes de abandono y de grandeza

Trafica la ilusión, la falsa evolución

De nuestro mundo maniatado a la pobreza.



D5 C5 A#5 A5 A#5

En este viaje a la realidad x2 (aquí se hace como al principio)



Solo: D5

Ni a pedos lo saco jajajajaja





Letra subida por: Anónimo

Discos en los que aparece este acorde: Plan Mundial Para La Destruccion

El acorde de Viaje A La Realidad de Logos es una versión de la canción original realizada por colaboradores/usuarios de Coveralia.

¿Has encontrado algún error en esta página? Envíanos tu corrección del acorde