música
Buscador

Acorde de Ven A La Eternidad (Bonus Track Karaoke) - Logos

Letra de Ven A La Eternidad (Bonus Track Karaoke)



intro

e|-------------------------------------------------------|

B|--9b(10)-8---------------------------------------------|

G|-----------10-9-7----7-------7-10-9h-10-------7h-9-10--|

D|------------------10---10--8------------7h-10----------|

A|-------------------------------------------------------|

E|-------------------------------------------------------|



e|----------------------------------------------------------------|

B|--9b(10)-8------------------------------------------------------|

G|-----------10-9-7----7------------------------------------------|

D|------------------10---10--8p-7------7------------------10--12--|

A|-------------------------------10-8---10-8-7-10-7-8-----10--12--|

E|----------------------------------------------------10--8---10--|



e|-------------------------------------------------------|

B|--9b(10)-8---------------------------------------------|

G|-----------10-9-7----7-------7-10-9h-10-------7h-9-10--|

D|------------------10---10--8------------7h-10----------|

A|-------------------------------------------------------|

E|-------------------------------------------------------|



e|------------------------------------------------------|

B|--9b(10)-8--------------------------------------------|

G|-----------10-9-7----7-------3h-5p%%%%%%-3\2-2h-5p-3--|

D|------------------10---10-----------------------------|

A|------------------------------------------------------|

E|------------------------------------------------------|



riff1

|'''''''''''P.M.palm mute'''''''''''''|

e|---------------------------------------------------------|

B|---------------------------------------------------------|

G|--2-2-2--4-4-4--5-5-5--7-5--2-2-2--4-4-4-----------------|

D|--2-2-2--4-4-4--5-5-5--7-5--2-2-2--4-4-4--3-2------------|

A|--0-0-0--0-0-0--0-0-0--0-0--0-0-0--0-0-0------5-3-2-3-5--|

E|---------------------------------------------------------|



riff2

|'''''P.M.palm mute'''''|

e|----------------------------------|

B|----------------------------------|

G|--2-2-2--4-4-4--5-5-5--7-7--------|

D|--2-2-2--4-4-4--5-5-5--7-7--3--5--|

A|--0-0-0--0-0-0--0-0-0--0-0--3--5--|

E|----------------------------1--3--|



sobre riif1

Se que estas harto de sentirte solo entre tanta gente

sobre riff2

y de andar por mil caminos que confunden tu mente

sobre riff1

Se que ya a nadie le interesa saber como te sientes

sobre riff2

porque el mundo esta perdido en su propia oscuridad



F D G G#

pero podes confiar en mi

e|----------------------------------------|

B|----------------------------------------|

G|--10--7---------------------------------|

D|--10--7--5-5-5-5-5-5-6-5--5p-3p-2h-3ap--|

A|--8---5--5-5-5-5-5-5-6-5----------------|

E|---------3-3-3-3-3-3-4-3----------------|



D G E

adonde vayas estare esperandote

e|----------------------|

B|----------------------|

G|--7-------------------|

D|--7-5-2---------------|

A|--5-5-2--------5-3-2--|

E|----3-0--0-2-3--------|



A C G E A E F

Ven A LA eternidad SI puedes creer que yo soy la vida

A C G E A E F

no moriras jamas porque yo venci en la cruz la muerte

e|--------------------------------------------------|

B|--------------------------------------------------|

G|--2--5--------2-----------------------------------|

D|--2--5--5--2--2--2--3-----------------------------|

A|--0--3--5--2--0--2--3--3h-5-5h-7-7-5-3-2-3-2------|

E|--------3--0-----0--1------------------------5-3--|



Conozco el hambre y la sed la injusticia y el dolor

|P.M.| |P.M.| |P.M.| |P.M.| |P.M.| |P.M.|

e|----------------------------------| |--------------------------------------|

B|----------------------------------| |--------------------------------------|

G|----------------------------------| |--------------------------------------|

D|--------10-------9-------7---7-5--|X2 |--------8-------7-------5-------------|

A|--8-8-8----8-8-8---8-8-8---8------| |--5-5-5---5-5-5---5-5-5---7-8p-7-5-3--|

E|----------------------------------| |--------------------------------------|



Se quien sos como estas _

e|---------------------------| |--------------------| \

B|---------------------------| |--------------------| \

G|--4-4-4-4---------------4--| |--4-4-4-4-----------| |

D|--4-4-4-4-5-4-2-4-4-4-5-4--| |--4-4-4-4-5-4-2-4-2-| |

A|--2-2-2-2-2-2-2-2-2-2-2-2--| |--2-2-2-2-2-2-2-2-2-| |

E|---------------------------| |--------------------| |

|TODO CON

aqui estoy aqui estoyyyy |P.M.

e|----------------------------| |--------------------------| |

B|----------------------------| |--------------------------| |

G|--4-4-4---------------------| |-----------------------7--| |

D|--4-4-4-5-4-4-4-4-5-4-2-4-2-| |--4-2-2--4-2-2--4-2-2--7--| |

A|--2-2-2-2-2-2-2-2-2-2-2-2-2-| |--2-2-2--2-2-2--2-2-2--5--| /

E|----------------------------| |--------------------------| _/

http://www.coveralia.com/acordes/ven-a-la-eternidad--bonus-track-karaoke--logos.php



solo

e|---------------------------------------------------------------------------------|

B|---------------------------------------------------------------------------------|

G|--7/9-7-----------------------------7-9-10/12-10p9-7h9-10-9b(10)-7h-9p-7h-9p-----|

D|--------10-9-7---------------7-9-10------------------------------------------10--|

A|---------------10-7-8-7-8-10-----------------------------------------------------|

E|---------------------------------------------------------------------------------|



tapping

e|-----------------------------------------------------------|

B|-----------------------------------------------------------|

G|--9h-12-17-9-17-9h-12-19-9-19-9h-12-17-9-17-9h-12-16-9-16--|

D|-----------------------------------------------------------|

A|-----------------------------------------------------------|

E|-----------------------------------------------------------|



ligados y tapping

e|-----------------------------------------------------------|

B|--12h-13p-12h-13p-12\10h-13p-10h-13p-10\8h-10-13-8h-10-13--|

G|-----------------------------------------------------------|

D|-----------------------------------------------------------|

A|-----------------------------------------------------------|

E|-----------------------------------------------------------|



e|-----------------------------------------------------------------|

B|-----------------------------------------------------------------|

G|--10-10-9p-7-9h-10-9-7-------------------------------------------|

D|-----------------------10-9-10-9-7-------------------------------|

A|-----------------------------------10-8-7-3/5-5/7-7-10-8-7-7-5-5-|

E|-----------------------------------------------------------------|



e|----------------------------------------------------------------------------|

B|--10-8h-10p-8h%%%----13-12-13-15-13-13-12-13----13-12-13-12----10-8-10-8----|

G|---------------------------------------------14-------------9------------5--|

D|----------------------------------------------------------------------------|

A|----------------------------------------------------------------------------|

E|----------------------------------------------------------------------------|



e|--8-10-12-10-8-10-12-10--|

B|-------------------------|

G|-------------------------|

D|-------------------------|

A|-------------------------|

E|-------------------------|



e|--7-8-10-8-7-8-10-8--|

B|---------------------|

G|---------------------|

D|---------------------|

A|---------------------|

E|---------------------|



e|-8-7-5-7-8-7-8-7-5-7-8-7-5--5\3-------3---4/12-19-17~--|

B|--------------------------------6-5-6---6--------------|

G|-------------------------------------------------------|

D|-------------------------------------------------------|

A|-------------------------------------------------------|

E|-------------------------------------------------------|



B D A F# B F# G \

Ven A LA eternidad SI puedes creer que yo soy la vida |

B D A F# B F# G |

No moriras jamas porque yo venci en la cruz la muerte |

e|--------------------------------------------------| | x 2

B|--------------------------------------------------| |

G|--4--7--------4-----------------------------------| |

D|--4--7--7--4--4--4--5-----------------------------| |

A|--2--5--7--4--2--4--5--5h-7-7/9-9-7-5-4-5-4-------| |

E|--------5--2-----2--3-----------------------7-5---| /





e|-----------------------------------------------------| \

B|--------------------------------------7-5------------| |

G|------------------------------------------7-6-4---4--| |

D|------------------------------------------------7----| |

A|--2-0-0-0-5-2-0-2-2-0-0-0-------5p-2-----------------| |

E|--------------------------3-2-3----------------------| |

| x 2

Ven A LA eternidad |

e|-------------------------------------------------------| |

B|-------------------------------------------------------| |

G|-------------------------------------------------------| |

D|-----------------------------------5-4-5---------------| |

A|--2-0-0-0-5-2-0-2-2-0-0-0-------5--5-4-5--------5-4-0--| |

E|--------------------------3-2-3----3-2-3--2-3-5--------| /



la ultima vez

ven a la eternidad

e|---------------------|

B|---------------------|

G|--------------4-4-4--|

D|--5--4--7pl---4-4-4--|

A|--5--4--7pl---2-2-2--|

E|--3--2--5pl----------|



b: (bend) estirar la cuerda hasta la nota indicada

br: estirar a la nota indicada y luego regresar a la primer nota

/: arrastre ascendente

\: arrastre descendendente

p: (pull off o ligado descendente) tocar la nota y levantar el dedo

haciendo sonar la nota siguiente sin pulsar

con la pua

h: (hammer on o ligado ascendente) tocar la primer nota y hacer sonar

la siguiente martillando con el dedo

pl: palanquear

%: repeticion (tantas veces como aparezca el signo)

ap: armonico de púa

Letra subida por: Anónimo

Discos en los que aparece este acorde: A Traves De Los Tiempos

El acorde de Ven A La Eternidad (Bonus Track Karaoke) de Logos es una versión de la canción original realizada por colaboradores/usuarios de Coveralia.

¿Has encontrado algún error en esta página? Envíanos tu corrección del acorde